Porcupine Tree Tabs

Way Out Of Here

3 versions

TAB

            Guitar first comes in. Clean tone. Song is in 6/8 
 
They play it in Drop C live, but most of it is possible to play it Drop D. 
 
   E   E    E    Q.         E   E    E    Q.         E   E    E    Q.       
------12----------------|------12----------------|------12----------------| 
----------(10)----------|----------(10)----------|----------(10)----------| 
----------------10------|----------------10------|----------------10------| 
--12--------------------|--12--------------------|--12--------------------| 
------------------------|------------------------|------------------------| 
------------------------|------------------------|------------------------| 
 
 
   E   E    E    Q.         E   E    E    Q.         E   E    E    Q.       
------12----------------|------12----------------|------12----------------| 
----------(10)----------|----------(10)----------|----------(10)----------| 
----------------10------|----------------12------|----------------12------| 
--12--------------------|--10--------------------|--10--------------------| 
------------------------|------------------------|------------------------| 
------------------------|------------------------|------------------------| 
 
 
   E   E    E    Q.         E   E    E    Q.         E   E    E    Q.       
------12----------------|------12----------------|------15----------------| 
----------(10)----------|----------(10)----------|----------------11------| 
----------------12------|----------------12------|----------(14)----------| 
--10--------------------|--10--------------------|------------------------| 
------------------------|------------------------|--13--------------------| 
------------------------|------------------------|------------------------| 
 
 
   E   E    E    Q.         E   E    E    Q.         E   E    E    Q.       
------15----------------|------15----------------|------15----------------| 
----------------11------|----------------11------|----------------11------| 
----------(14)----------|----------(14)----------|----------(14)----------| 
------------------------|------------------------|------------------------| 
--13--------------------|--13--------------------|--13--------------------| 
------------------------|------------------------|------------------------| 
 
 
   E   E    E    Q.         E   E    E    Q.         E   E    E    Q.       
------15----------------|------15----------------|------15----------------| 
----------------11------|----------------11------|----------------11------| 
----------(14)----------|----------(14)----------|----------(14)----------| 
------------------------|------------------------|------------------------| 
--12--------------------|--12--------------------|--12--------------------| 
------------------------|------------------------|------------------------| 
 
 
   E   E    E    Q.          
------15----------------| 
----------------11------| 
----------(14)----------| 
------------------------| 
--12--------------------| 
------------------------| 
 
Chorus 
 
   Q.     Q.       
|----------------| 
|----------------| 
|--7------7------| 
|--7------7------| 
|--5------5------| 
|----------------| 
 
 
  Q.     Q.        Q.     Q.        Q.     Q.         
----------------|----------------|----------------| 
----------------|----------------|----------------| 
--3------3------|----------------|---------3------| 
--3------3------|--5------5------|--3------3------| 
--1------1------|--5------5------|--3------1------| 
----------------|--5------5------|--3-------------| 
 
Verse. 
 
   E  H        E    
|-----------------| 
|-----5--------L--| 
|-----------------| 
|-----------------| 
|--5--L--------L--| 
|-----------------| 
 
 
  H.              E  H        E     H.              E  H        E    
---------------|-----------------|---------------|-----------------| 
--L------------|-----5--------L--|--L------------|-----5--------L--| 
---------------|-----------------|---------------|-----------------| 
---------------|-----------------|---------------|-----------------| 
--L------------|--5--L--------L--|--L------------|--3--L--------L--| 
---------------|-----------------|---------------|-----------------| 
 
 
  H.              E  H        E     H.              E  H        E    
---------------|-----------------|---------------|-----3--------L--| 
--L------------|-----5--------L--|--L------------|-----------------| 
---------------|-----------------|---------------|-----------------| 
---------------|-----------------|---------------|-----------------| 
--L------------|--3--L--------L--|--L------------|--1--L--------L--| 
---------------|-----------------|---------------|-----------------| 
 
 
  H.              E  H        E     H.              E  H        E    
--L------------|-----3--------L--|--L------------|-----3--------L--| 
---------------|-----------------|---------------|-----------------| 
---------------|-----------------|---------------|-----------------| 
---------------|-----------------|---------------|-----------------| 
--L------------|--1--L--------L--|--L------------|--0--L--------L--| 
---------------|-----------------|---------------|-----------------| 
 
 
  H.              E  H        E     H.              E     
--L------------|-----3--------L--|--L------------| 
---------------|-----------------|---------------| 
---------------|-----------------|---------------| 
---------------|-----------------|---------------| 
--L------------|--0--L--------L--|--L------------| 
---------------|-----------------|---------------| 
 
Repeat chorus again. 
 
Fripp's soundscapes. 
 
E  E  E  E  E  E    
|-----3-----------5--| 
|--5-----0-----5-----| 
|-----------5--------| 
|--------------------| 
|--------------------| 
|--------------------| 
 
 
  E  E  E  E  E  E     E  E  E  E  E  E     E  E  E  E  E  E    
-----3-----------5--|-----3-----------5--|-----3-----------5--| 
--5-----0-----5-----|--5-----0-----5-----|--5-----0-----5-----| 
-----------5--------|-----------5--------|-----------5--------| 
--------------------|--------------------|--------------------| 
--------------------|--------------------|--------------------| 
--------------------|--------------------|--------------------| 
 
 
  E  E  E  E  E  E     E  E  E  E  E  E    
-----3-----------5--|-----3--5--2--------| 
--5-----0-----5-----|--4-----------4-----| 
-----------5--------|-----------------4--| 
--------------------|--------------------| 
--------------------|--------------------| 
--------------------|--------------------| 
 
Heavy riff 
 
E.  E  S E  E  E    
|--------------------| 
|--------------------| 
|--------------------| 
|--3--------3--------| 
|--3--------3--------| 
|--3---2--2-3--2--2--| 
 
 
      PM     PM PM      
  E.  E  S S E  E  S  
---------------------| 
---------------------| 
---------------------| 
--3--------3---------| 
--3--------3---------| 
--3---2--2-3-2--2--2-| 
 
Chorus again 
 
Repeat heavy riff again, then they play it without the palm muting. 
 
The soundscapes repeat again at the end.

Guitar II 
 
This is played when the drums first come in. I think it's a 2nd guitar over the first one. 
 
Q    E  Q    E     Q    E  Q    E    
------------------|------------------| 
------------------|------------------| 
-------2-------2--|-------2-------2--| 
--0-------3-------|--0-------3-------| 
------------------|------------------| 
------------------|------------------| 
 
 
  Q    E  Q    E     Q    E  Q    E     Q    E  Q    E     Q    E  Q    E    
------------------|------------------|------------------|------------------| 
------------------|------------------|------------------|------------------| 
-------2-------2--|-------2-------2--|-------2-------2--|-------2-------2--| 
--0-------3-------|--0-------3-------|----------5-------|----------5-------| 
------------------|------------------|--3---------------|--3---------------| 
------------------|------------------|------------------|------------------| 
 
 
  Q    E  Q    E     Q    E  Q    E     Q    E   Q    E     Q    E   Q    E    
------------------|------------------|-------------------|-------------------| 
------------------|------------------|-------------------|-------------------| 
-------2-------2--|-------2-------2--|-------2h--3----2--|-------2h--3----2--| 
----------5-------|----------5-------|-------------------|-------------------| 
--3---------------|--3---------------|--1----------------|--1----------------| 
------------------|------------------|-------------------|-------------------| 
 
 
  Q    E   Q    E     Q    E   Q    E     Q    E   Q    E     Q    E   Q    E    
-------------------|-------------------|-------------------|-------------------|

-------------------|-------------------|-------------------|-------------------|

-------2h--3----2--|-------2h--3----2--|-------2h--3----2--|-------2h--3----2--|

-------------------|-------------------|-------------------|-------------------|

--1----------------|--1----------------|--0----------------|--0----------------|

-------------------|-------------------|-------------------|-------------------|

 
 
  Q    E   Q    E     Q    E   Q    E                                        
-------------------|-------------------| 
-------------------|-------------------| 
-------2h--3----2--|-------2h--3----2--| 
-------------------|-------------------| 
--0----------------|--0----------------| 
-------------------|-------------------|

Guitar Solo 
 
   E.   E.   E.   E.         E.   E.   E.   E.      E.   E.   E.   E.    
--5g10---10---10---10---|--10g12---12---12---12---|--12------------------| 
------------------------|-------------------------|-------10---10---10---| 
------------------------|-------------------------|----------------------| 
------------------------|-------------------------|----------------------| 
------------------------|-------------------------|----------------------| 
------------------------|-------------------------|----------------------| 
 
 
   E.   E.      E.   E.      S   S  S  S   S   S  S   S  S   S  S   S   
-------------------------|--12h-13----12h-13h-15-13p-12---------------| 
--10---10---10g13---13---|---------15-------------------15p-13--------| 
-------------------------|-------------------------------------14p-12-| 
-------------------------|--------------------------------------------| 
-------------------------|--------------------------------------------| 
-------------------------|--------------------------------------------| 
 
 
                             |---3---|                                  
   E   E   E   Q     E       S   S   S  S  S   S  S  S  S  S  S  S  S   
-------------------------|-----------------------10-------------------| 
-------------------------|--11h-13p-11-10-13p-11----13-12-10----------| 
------12--14--12~----L\--|-----------------------------------12-------| 
--15---------------------|--------------------------------------14-12-| 
-------------------------|--------------------------------------------| 
-------------------------|--------------------------------------------| 
 
 
   E   E   E   Q     E        E.  E  S E.  E  S    E.  E  S E.  E  S   
-------------------------|----------------------|--------------------| 
-------------------------|----------------------|--------------------| 
-------------------------|-------------7---7--7-|-----------7---7--7-| 
--10--12--14--12~----L\--|--5g7---7--7----------|--8---8--8----------| 
-------------------------|----------------------|--------------------| 
-------------------------|----------------------|--------------------| 
 
 
  E.  E.  E.  E  S      E   E   E   E   E   E      S S   S S  S  S E   E  E    
--------------------|--------------10-----------|----------------------------| 
--------------------|--10--13--10------10-------|----------9p-8----8---------| 
--7---7---7---7--L/-|----------------------10\--|----7h-10------10----10-----| 
--------------------|---------------------------|--7----------------------7--| 
--------------------|---------------------------|----------------------------| 
--------------------|---------------------------|----------------------------| 
 
 
  S S   S S  S  S E   E  E       E.  E.  S  E  E.    
----------------------------|----------------------| 
----------9p-8----8---------|----------------------| 
----7h-10------10----10-----|--5g7---7---7S-9--9---| 
--7----------------------7--|----x---x---x--x--x---| 
----------------------------|--3g5---5---5S-7--7---| 
----------------------------|----------------------| 
 
 
   S  E   E   S   S  E   E   S     E.   E   S  E   E   E    
-------------------------------|--------------------------| 
-------------------------------|--------------------------| 
--10-10--10--10S-12-12--12--12-|--11---11--11-11--11--11--| 
---x--x---x---x---x--x---x---x-|---x----x---x--x---x---x--| 
---8--8---8---8S-10-10--10--10-|---9----9---9--9---9---9--| 
-------------------------------|--------------------------| 
 
 
   S   E   E   S  E   E   E      S  E  E  S E  E  E    
-----------------------------|-----------------------| 
-----------------------------|-----------------------| 
--11S-10--10--10-10--10--10--|--10S-9--9--9-9--9--9--| 
---x---x---x---x--x---x---x--|---x--x--x--x-x--x--x--| 
---9S--8---8---8--8---8---8--|---8S-7--7--7-7--7--7--| 
-----------------------------|-----------------------| 
 
 
  S  E  E  S S  S S S S S     E.   E   S  E   E   E    
--------------------------|--------------------------| 
--------------------------|--------------------------| 
--9S-7--7--7-7S-5-5-5-5-5-|--11---11--11-11--11--11--| 
--x--x--x--x-x--x-x-x-x-x-|---x----x---x--x---x---x--| 
--7S-5--5--5-5S-3-3-3-3-3-|---9----9---9--9---9---9--| 
--------------------------|--------------------------| 
 
 
   S   E   E   S  E   E   E      S  E  E  S E  E  E    
-----------------------------|-----------------------| 
-----------------------------|-----------------------| 
--11S-10--10--10-10--10--10--|--10S-9--9--9-9--9--9--| 
---x---x---x---x--x---x---x--|---x--x--x--x-x--x--x--| 
---9S--8---8---8--8---8---8--|---8S-7--7--7-7--7--7--| 
-----------------------------|-----------------------| 
 
 
  S  E  E  S S  S S S S S                                                     
--------------------------| 
--------------------------| 
--9S-7--7--7-7S-5-5-5-5-5-| 
--x--x--x--x-x--x-x-x-x-x-| 
--7S-5--5--5-5S-3-3-3-3-3-| 
--------------------------|

Enjoy!
 
 
Duration Legend 
--------------- 
W - whole 
H - half 
Q - quarter 
E - 8th 
S - 16th 
T - 32nd 
X - 64th 
. - note dotted 
|-n-|  - n-tuplets 
 
 
Tablature Legend 
---------------- 
L - tied note 
x - dead note 
g - grace note 
(n) - ghost note 
> - accentuded note 
NH - natural harmonic 
AH - artificial harmonic 
TH - tapped harmonic 
SH - semi harmonic 
PH - pitch harmonic 
h - hammer on 
p - pull off 
b - bend 
br - bendRelease 
pb - preBend 
pbr - preBendRelease 
brb - bendReleaseBend 
\n/ - tremolo bar dip 
\n - tremolo bar dive 
-/n - tremolo bar Release up 
/n\ - tremolo bar inverted dip 
/n - tremolo bar return 
-\n - tremolo bar Release down 
S - shift slide 
s - legato slide 
/ -  slide into from below or out of upwards 
\ -  slide into from above or out of downwards 
~ - vibrato 
W - wide vibrato 
tr - trill 
TP - tremolo picking 
T - tapping 
S - slap 
P - pop 
< - fade in 
^ - brush up 
v - brush down    

Added On December 16th, 2013

SHARE

Comments

blog comments powered by Disqus

VERSIONS

ADVERTISEMENT