Portishead Tabs

The Rip

3 versions

TAB

            Use fingerpicking:

...... As she........ room, scented....... tall,....... hesitating....      

e|-------------------|--------------------|-------------------|--------------------|
B|-8----8----8----8--|-10---10---10---10--|-8----8----8----8--|-5----5----5----2---|
G|--9----9----9----9-|--10---10---10---10-|--9----9----9----9-|--5----5----5----3--|
D|---9----9----9----9|---10---10---10---10|---9----9----9----9|---5----5----5----4-|
A|7----7----7----7---|8----8----8----8----|7----7----7----7---|3----3----3----2----|
E|-------------------|--------------------|-------------------|--------------------|


...... and as..... my-self, and the....... felt....           love....

e|-0----0----0----0--|-1----1----1----1---|-0----0----0----0--|--------------------||
B|--1----1----1----1-|--3----3----3----3--|--1----1----1----1-|-3----3----3----3---||*
G|---2----2----2----2|---3----3----3----3-|---2----2----2----2|--4----4----4----4--||
D|-------------------|--------------------|-------------------|---5----5----5----5-||
A|0----0----0----0---|1----1----1----1----|0----0----0----0---|--------------------||*
E|-------------------|--------------------|-------------------|3----3----3----3----||


It's literally the same progression the entire song, except it switches to synths in the middle.    

Added On December 16th, 2013

SHARE

Comments

blog comments powered by Disqus

VERSIONS

ADVERTISEMENT