Powderfinger Tabs

Over My Head

1 versions

TAB

            Powderfinger - Over My Head

 
VERSE CHORDS: 
    C             Dm            A#            G 
E-|-------------------------------------------------------|- 
B-|-5--5-5--5-5---6--6-6--6-6---6--6-6--6-6---3--3-3--3-3-|- 
G-|-5--5-5--5-5---7--7-7--7-7---7--7-7--7-7---4--4-4--4-4-|- 
D-|-5--5-5--5-5---7--7-7--7-7---8--8-8--8-8---5--5-5--5-5-|- 
A-|-3--3-3--3-3---5--5-5--5-5---8--8-8--8-8---5--5-5--5-5-|- 
E-|-----------------------------6--6-6--6-6---3--3-3--3-3-|- 
 
CHORUS CHORDS: 
    Dm            F                  A# 
E-|----------------------------------------------|- 
B-|-6--6-6--6-6---10--10-10--10-10---6--6-6--6-6-|- 
G-|-7--7-7--7-7---10--10-10--10-10---7--7-7--7-7-|- 
D-|-7--7-7--7-7---10--10-10--10-10---8--8-8--8-8-|- 
A-|-5--5-5--5-5---8---8--8---8--8----8--8-8--8-8-|- 
E-|----------------------------------6--6-6--6-6-|- 
 
Finish on a simple F chord 
    F 
E-|-1-|- 
B-|-1-|- 
G-|-2-|- 
D-|-3-|- 
A-|-3-|- 
E-|-1-|-    

Added On December 16th, 2013

SHARE

Comments

blog comments powered by Disqus

ADVERTISEMENT