Queens Of The Stone Age Tabs

I Think I Lost My Headache

5 versions

TAB

            I Think I Lost My Headache Tab by Queens Of The Stone Age


******************************************************
*QUEENS OF THE STONE AGE - I THINK I LOST MY HEADACHE*
******************************************************

DISCO: RATED R (2000)

AFINACION: C-F-Bb-Eb-G-c (Dos tonos abajo con respecto a E-A-D-G-B-e)

HECHO POR: JUAN ANGEL DE CAMILLIS.

Cualquier correciĆ³n, sugerencia, mandame un mail a jadecam_akd@hotmail.com.


INTRO: 
 c|---------------------------------------|| 
 G|---------------------------------------|| 
Bb|---------------------------------------||
Eb|------13--11--------11--10-------------|| 
 F|---12--------12--10--------12-----12---|| 
 C|-------------------------------13------|| 

VERSO:
(Guitarra 1)
 c|-----------------------------| 
 G|-----------------------------|
Bb|-----------------------------|
Eb|---7--7-7--7-7--8-8--11-11---|
 F|---7--7-7--7-7--8-8--11-11---|
 C|---5--5-5--5-5--6-6---9--9---|

(Guitarra 2)
 c|-----------------| 
 G|---14-----br17---| 
Bb|-----------------| 
Eb|-----------------| 
 F|-----------------| 
 C|-----------------| 
"You know why the called and just let it ring..."
   
(Estos fills se escuchan de fondo, es probable que sea el bajo, pero igualmente 
aca se los pongo para la guitarra.)
 c|-----------------|-----------------|  
 G|-----------------|-----------------|  
Bb|-----------------|-----------------|  
Eb|-----------------|-----------------|  
 F|---4-5-4-----4---|---4-5-----4-5---|  
 C|---------7-6-----|-------7-6-------| 


PRE ESTRIBILLO
(Guitarra 1)
 c|--------||
 G|--------||
Bb|---15---||
Eb|---15---||
 F|---13---||
 G|--------||

ESTRIBILLO:
 c|------------------------------------| 
 G|------------------------------------|
Bb|--------14------------13-------10---| 
Eb|-----14----14------------13---------|
 F|---12----------12--11--------8------|
 C|------------------------------------|

"It's all my head I know 
So they tell me so 
Until my head explodes 
Until my headache... 

 c|--------||
 G|--------||
Bb|---15---||
Eb|---15---||
 F|---13---||
 G|--------||
   
   ...goes"

OUTRO:
 c|---------------------------------------|| 
 G|---------------------------------------|| 
Bb|---------------------------------------||
Eb|------13--11--------11--10-------------|| 
 F|---12--------12--10--------12-----12---|| 
 C|-------------------------------13------||    

Added On December 5th, 2013

SHARE

Comments

blog comments powered by Disqus