Queens Of The Stone Age Tabs

Misfit Love

2 versions

TAB

            realy simple song once you hamer it into youre head.
first guitar tab also.
im only gonna tab the parts josh plays, i havent got round to figurin out all of the 
troy does, once i do i'll post if you guys like.let me know.

this song doesnt really have a verse chorus type structure, its quite odd so bare with 
and ill post some of the lyrics so you know when to come in.

intro(make sure you come in at the right time, listen for the guitar)


e|---------------------------------------------|
B|---------------------------------------------|
G|---------------------------------------------|
D|---------------------------------------------|   x6
A|---------------------------------------------|
E|-0-2-0-2-----0-2-----0-2-0-2-----0-0-0-0-2---|


verse 1

e|---------------------------------------------|
B|---------------------------------------------|
G|---------------------------------------------|
D|---------------------------------------------|   x6
A|---------------------------------------------|
E|-0-2-0-2-----0-2-----0-2-0-2-----0-0-0-0-2---|
        "Wanna see my past in flames..."


e|---------------------------------------------|
B|---------------------------------------------|
G|---------------------------------------------| x1
D|---------------------------------------------|
A|---------------------------------------------|
E|-0-2-0-2/6-----0-2/6-----0-2-0-2/8-----0-2/8-|
  "aint born to lose, baby i'm born to win"

e|-------------------------------------|
B|-------------------------------------|
G|-------------------------------------|
D|-------------------------------------|  x2
A|-------------------------------------|
E|-0-2-0-2-----0-2-----0-2-----0-2-----|
      "im so sick baby it's a sin"


chorusey bit

e|---------------------------------------------|
B|---------------------------------------------|
G|---------------------------------------------|
D|---------------------------------------------|
A|---------------------------------------------|
E|-0-0-0-0-2-----0-2-0-2-----0-2-------2-------|
               "transforming"                         x2

e|-----------------------------------------------------|
B|-----------------------------------------------------|
G|-----------------------------------------------------|
D|-----------------------------------------------------|
A|-----------------------------------------------------|
E|-0-0-0-0-2-----0-2-0-2-----0-2-------2-----0-0-0-0-2-|
                "is becoming"                  "on me"


verse
e|---------------------------------------------|
B|---------------------------------------------|
G|---------------------------------------------|
D|---------------------------------------------|   x2
A|---------------------------------------------|
E|-0-2-0-2-----0-2-----0-2-0-2-----0-0-0-0-2---|

e|---------------------------------------------|
B|---------------------------------------------|
G|---------------------------------------------|
D|---------------------------------------------|   x6
A|---------------------------------------------|
E|-0-2-0-2-----0-2-----0-2-0-2-----0-0-0-0-2---|
        "do me first do youre worst"


e|---------------------------------------------|
B|---------------------------------------------|
G|---------------------------------------------| x1
D|---------------------------------------------|
A|---------------------------------------------|
E|-0-2-0-2/6-----0-2/6-----0-2-0-2/8-----0-2/8-|
  "aint born to lose, baby i'm born to win"

e|---------------------------------------------------------------|
B|---------------------------------------------------------------|
G|---------------------------------------------------------------|
D|---------------------------------------------------------------|
A|---------------------------------------------------------------|
E|-0-----2-----0-----2-----0-----2-----0-----0-2-0-2-----0-2-0-0-|
  "im so sick baby its a sin"


outro

e|-----------------------------------------------------------------|
B|-----------------------------------------------------------------|
G|-6-6-6-6-6-6-6-6-6-6-6-6-6-6-6-6-6-6-6-6-6-6-6-6-6-5-5-5-5-5-5-5-|
D|-----------------------------------------------------------------|
A|-----------------------------------------------------------------|
E|-----------------------------------------------------------------|
                                                                     x4
e|-----------------------------------------------------------------|
B|-----------------------------------------------------------------|
G|---------------------------------6-----6-----6----6-----6b(7)(6)-|
D|-7-7-7-7-7-7-7-7-7-7-7-7-7-7-7-7---4-4---4-4--4-4---4-4----------|
A|-----------------------------------------------------------------|
E|-----------------------------------------------------------------|

then to this x4
e|-----------------------------------------------------------------------------------------------|
B|-14-14-14-14-14-14-14-14-14-14-14-14-14-14-14-14-13-13-13-13-13-13-13-13-13-10-10-10-10-10-1010|
G|-----------------------------------------------------------------------------------------------|
D|-----------------------------------------------------------------------------------------------|
A|-----------------------------------------------------------------------------------------------|
E|-----------------------------------------------------------------------------------------------|


end on this.
e|---------|
B|---14\---|
G|---------|
D|---------|
A|---------|
E|---14\---|    

Added On December 16th, 2013

SHARE

Comments

blog comments powered by Disqus

VERSIONS

ADVERTISEMENT