Rage Against The Machine Tabs

Ashes In The Fall

3 versions

TAB

            Ashes In The Fall Tab by Rage Against The Machine


Tune down one whole step:D,G,C,F,A,D.
Key:Natural harmonic 
Pinched harmonic [6]
Ghost note (8)
Bend note ^
Pick scratch #
Intro-repeat x2

|--19-0-0-19-0-0-19--19-0-0-19-0-0-19--20-0-0-20-0-0-20--
|--------------------------------------------------------
|--------------------------------------------------------
|--------------------------------------------------------
|--------------------------------------------------------
|--------------------------------------------------------

|--20-0-0-20-0-0-20--22-0-0-22-0-0-22--22-0-0-22-0-0-22--
|--------------------------------------------------------
|--------------------------------------------------------
|--------------------------------------------------------
|--------------------------------------------------------
|--------------------------------------------------------

Verse
With delay and whammy pedal*
*Digitech whammy pedal set for 2 octaves higher when depressed
|--12-----(12)----(12)--------------10-----(10)----(10)---
|---------------------------------------------------------
|---------------------------------------------------------
|---------------------------------------------------------
|---------------------------------------------------------
|---------------------------------------------------------


Chorus
*harmonized arranged for guitar.
|----------5---------5-----------
|----------3---------3-----------
|----------6---------6-----------
|----------4---------4-----------
|--------------------------------
|--------------------------------

Bridge
Whammy pedal off
|-----------------------------------------------------------------
|---------------[2]-----------------------------------------------
|-----------------------------------------------------------
|----------------------------5-------------------x----------5---5-
|----------------------4--------------------x----------------
|--0----------------------0-------------------0-------------------

|----------------------------------------------------------
|-------------11--9-------------------------------
|-------------11--9-------------------------------
|----------------------------------------------------------
|--5h7-------------------------------------4^-----------
|--0------------------0------0---0----------------3^-------

|----------------------------------14----------------
|----------------------------------14--15------------
|-----------2-0------------------------12------------
|-----------2-0--------------------------------------
|---------------2--2-----------------7---
|-------------0-------------0----------0---0------

|------------------------------------------------------
|------------------------------------------------------
|-----------xxxxxx-------xxx-7---xxxx------------^--
|--5--5--7--xxxxxx-----5-xxx-7-5-xxxx-5--5-5------x----
|-----------xxxxxx--7----xxx-7---xxxx--------7---^--
|--------------------------------------------0---------

|-------------------------------------------------------
|-------------------------------------------------------
|--()^-()-------------------------------xxx-------
|----x------x----------5-----^-----()^--xxx-5-5-5-
|--()^-()-4--7---------^-----()^------------
|--------------------------0----------------------------

|-------------------12--
|-------------------12--
|-------------------11--
|-------5--x--------11--
|-------------x---------
|--0--------------------

|---------------------------------------------
|---------------------------------------------
|---------------------------------------------
|---------------------------------------------
|--14------14------14----14------14------14---
|-----0--0----0--0----------0--0----0--0------

|---------------------------------------------------
|---------------------------------------------------
|---------------------------------------------------
|---------------------------------------------------
|--10------10------###----10------10------10---(10)-
|-----0--0----0--0-###------0--0----0--0------------

|---------------------------------------------------
|---------------------------------------------------
|---------------------------------------------------
|---------------------------------------------------
|---------------------------------------------------
|--0-(0)-(0)-(0)-(0)-(0)---0-(0)-(0)-(0)-(0)-(0)----

|---------------------------------------------------
|---------------------------------------------------
|--13-------------13---------------13---------------
|------------14---------------14----------------14--
|---------------------------------------------------
|---------------------------------------------------

well thats it!, its not the easiest song in the world.. but it just goes to show how good
Tom Morrello is.Any questions etc, e-mail ma at
dont_fall_asleep_or_ill_mutilate_ur_genitals@hotmail.com    

Added On December 5th, 2013

SHARE

Comments

blog comments powered by Disqus

VERSIONS

ADVERTISEMENT