Rata Blanca Tabs

La Leyenda del Hada y el Mago

12 versions

TAB

            La Leyenda Del Hada Y El Mago Tab by Rata Blanca


Esta es la Tablatura de la leyenda del hada y el mago del album 
"Magos, Espadas y Rosas". No aparece toda la letra de la canción 
pero es nada más seguir tocando los mismos acordes de la letra.

INTRODUCCIÓN:

e: --------------------------------------------------------------------------------------------------|
B: --------------------------------------------------------------------------------------------------|
G: --------------------------------------------------------------------------------------------------|
D: --------------------------------------------------------------------------------------------------| x3
A: -----5---2--2--2--2--2------------5---2--2--2--2--2--------5--4--2--7--5--4----5---2--2--2--2--2--|
E:  -----3---0--0--0--0--0------------3---0--0--0--0--0--------3--2--0--5--3--2----3---0--0--0--0--0-|


e: --------------------------------------------------------------------------------------------------|
B: --------------------------------------------------------------------------------------------------|
G: --------------------------------------------------------------------------------------------------|
D: --------------------------------------------------------------------------------------------------|
A: -----5---2--2--2--2--2---5---2--2--2--2--2---------5--4--2--7--5--4----5---3---2------------------|
E:  -----3---0--0--0--0--0---3---0--0--0--0--0---------3--2--0--5--3--2------------------5---3---2---|



E                                      D                            E                              B   A
 Cuenta la historia que un mago que un dia en su bosque cantando lloró.

G                              D                           C                      A             C     B
 Porque a pesar de su magia no habia podido encontrar el amor


E                             D                E                          B      A 
 La luna su unica amiga le daba fuerzas para soportar,

G                              D                  C                                 E
 Todo el dolor que sentía por culpa de su tan larga soledad


CORO:

C                E                 D       F#   G    G#
 Y es que sabia muy bien que es existir

A                 A#           B
 nunca debia salir de su destino

E                  A                     D           G
 Si alguien te tiene que hablar ya lo sabras

C                                F#          B
 Solo tendrás que saber de conocerlo


OTRA VEZ LA INTRODUCCION Y SIGUEN LOS MISMOS ACORDES


ACLARACION: ESTA TABLATURA FUE TOMADA DE UNA PAGINA WEB DE RATA BLANCA, 
NO SE SI LOS ACORDES CORRESPONDEN A LA CANCION.    

Added On December 5th, 2013

SHARE

Comments

blog comments powered by Disqus