Raveonettes Tabs

Uncertain Times

2 versions

TAB

            ***the cords are played this way
   D                          A
E||--2--2--2--2--0--2--2--0--|--------------------------|
B||--3--3--3--3--3--3--3--3--|--0--2--2--2--0--2--2--2--|
G||--2--2--2--2--2--2--2--2--|--2--2--2--2--2--2--2--2--|
D||--0--0--0--0--0--0--0--0--|--2--2--2--2--2--2--2--2--|
A||--------------------------|--------------------------|
E||--------------------------|--------------------------|

G                          A
--3--3--3--3--3--3--3--3--|--------------------------||
--3--3--3--3--3--3--3--3--|--2--2--2--2--2--2--2--2--||
--0--0--0--0--0--0--0--0--|--2--2--2--2--2--2--2--2--||
--0--0--0--0--0--0--0--0--|--2--2--2--2--2--2--2--2--||
--2--2--2--2--2--2--2--2--|--------------------------||
--3--3--3--3--3--3--3--3--|--------------------------||





D                                A
Too many faded years and I can’t hold her

G                             A
So many strange up times have come my way

D                               A
Too many teardrops yeah I don’t get it

G                            A
Life moves on if you want it to

D                                     A
Too many times I’ve felt my heart was broken

G                               A
Wasting time on someone I don’t get

D                                   A
But I’ve found someone who makes me better

G                                    A
Yeah I’ve found someone who makes me go



D                                  A
I wanna ride with her in uncertain times

G                                       A
I wanna go where my thoughts can take a nap

D                                  A
And if the atom bomb should end us both

G                                     A
I’ll be happy to go to the stars with you





***SOLO
E||-----------------------------------------------|
B||-----------------------------------------------|
G||-----------------------------------------------|
D||--------------------------6---6------6---6-----|
A||--3-3-6-8-6-1-1----1/3h-4---3---3h-4---3---1-1-|
E||-----------------------------------------------|    

Added On December 16th, 2013

SHARE

Comments

blog comments powered by Disqus

VERSIONS

ADVERTISEMENT