Razorlight Tabs

Stop

1 versions

TAB

            Stop Chords by Razorlight

Im not sure if this song is off the new album or a b-side that i have missed out on. But 
is really good and the chords are pretty simple.

Chords

C  - X,3,5,5,5,3
Dm - X,5,7,7,6,5
G  - 3,5,5,4,3,3

Intro:-

E---x-------x-------3-------------------------|
A---3-------5-------5-------------------------|
D---5--X4---7--X2---5--X2---------------------|
G---5-------7-------4-------------------------|
b---5-------6-------3-------------------------|
e---3-------5-------3-------------------------|

Same rythym throughout first verse

Verse

C
C
e |---|---|-x-|---|---|
B |-x-|---|---|---|---|
G |---|---|---|---|---|
D |---|-x-|---|---|---|
A |---|---|-x-|---|---|
E |---|---|---|---|---|
Dm
Dm
e |-x-|---|---|---|---|
B |---|---|-x-|---|---|
G |---|-x-|---|---|---|
D |---|---|---|---|---|
A |---|---|---|---|---|
E |---|---|---|---|---|
, G
G
e |---|---|-x-|---|---|
B |---|---|---|---|---|
G |---|---|---|---|---|
D |---|---|---|---|---|
A |---|-x-|---|---|---|
E |---|---|-x-|---|---|
Well i know a girl C
C
e |---|---|-x-|---|---|
B |-x-|---|---|---|---|
G |---|---|---|---|---|
D |---|-x-|---|---|---|
A |---|---|-x-|---|---|
E |---|---|---|---|---|
Dm
Dm
e |-x-|---|---|---|---|
B |---|---|-x-|---|---|
G |---|-x-|---|---|---|
D |---|---|---|---|---|
A |---|---|---|---|---|
E |---|---|---|---|---|
,G
G
e |---|---|-x-|---|---|
B |---|---|---|---|---|
G |---|---|---|---|---|
D |---|---|---|---|---|
A |---|-x-|---|---|---|
E |---|---|-x-|---|---|
She told me everything she done C
C
e |---|---|-x-|---|---|
B |-x-|---|---|---|---|
G |---|---|---|---|---|
D |---|-x-|---|---|---|
A |---|---|-x-|---|---|
E |---|---|---|---|---|
Dm
Dm
e |-x-|---|---|---|---|
B |---|---|-x-|---|---|
G |---|-x-|---|---|---|
D |---|---|---|---|---|
A |---|---|---|---|---|
E |---|---|---|---|---|
,G
G
e |---|---|-x-|---|---|
B |---|---|---|---|---|
G |---|---|---|---|---|
D |---|---|---|---|---|
A |---|-x-|---|---|---|
E |---|---|-x-|---|---|
She said with these tiny hands C
C
e |---|---|-x-|---|---|
B |-x-|---|---|---|---|
G |---|---|---|---|---|
D |---|-x-|---|---|---|
A |---|---|-x-|---|---|
E |---|---|---|---|---|
Dm
Dm
e |-x-|---|---|---|---|
B |---|---|-x-|---|---|
G |---|-x-|---|---|---|
D |---|---|---|---|---|
A |---|---|---|---|---|
E |---|---|---|---|---|
,G
G
e |---|---|-x-|---|---|
B |---|---|---|---|---|
G |---|---|---|---|---|
D |---|---|---|---|---|
A |---|-x-|---|---|---|
E |---|---|-x-|---|---|
How my gona catch some fun Chorus Normal Strumming C
C
e |---|---|-x-|---|---|
B |-x-|---|---|---|---|
G |---|---|---|---|---|
D |---|-x-|---|---|---|
A |---|---|-x-|---|---|
E |---|---|---|---|---|
Dm
Dm
e |-x-|---|---|---|---|
B |---|---|-x-|---|---|
G |---|-x-|---|---|---|
D |---|---|---|---|---|
A |---|---|---|---|---|
E |---|---|---|---|---|
G
G
e |---|---|-x-|---|---|
B |---|---|---|---|---|
G |---|---|---|---|---|
D |---|---|---|---|---|
A |---|-x-|---|---|---|
E |---|---|-x-|---|---|
Too deep in your eyes (oooooooooo) Thats it. Ive kinda worked out Bjorns solos parts but i can't be bothered tabbing them the moment, its just the chords shapes roughly picked, then there is some more complex but i hope this can get u started. And you can do the rest for yourself. If you have any queries i dont care, it sounds good in my head. Mon the Libertines!!!!!

Added On December 5th, 2013

SHARE

Comments

blog comments powered by Disqus

ADVERTISEMENT