Red Tabs

Breathe Into Me

3 versions

TAB

            Breathe Into Me Tab by Red


Red 
"Breathe Into Me"
End Of Silence

Drop Db
(Db,Ab,Db,Gb,Bb,Eb)

[Main Riff]

Eb|-------------------------------|-|
Bb|-------------------------------|-|
Gb|-------10--------------7-------|-|
Db|-0-0-0-x--0-10-8-0-0-0-x-0-8-7-|8| X4
Ab|-0-0-0-8--0-10-8-0-0-0-5-0-8-7-|8|
Db|-0-0-0----0-10-8-0-0-0---0-8-7-|8|

Play the extra 8 the second time only.

Play this The Fourth Time

Eb|-----------------------------------|
Bb|-----------------------------------|
Gb|-------10--------------7-----------|
Db|-0-0-0-x--0-10-8-0-0-0-x-0-8-7-0-0-| 
Ab|-0-0-0-8--0-10-8-0-0-0-5-0-8-7-0-0-|
Db|-0-0-0----0-10-8-0-0-0---0-8-7-0-0-|





[Verse 1]

the guitar in the background plays the main riff with low volume.

then(not sure about the fill)

Eb|------------|
Bb|------------|
Gb|------------|
Db|-5-0-0-1--3-|
Ab|-5-0-0-1--3-|
Db|-5-0-0-1--3-|

Main Riff 


[Chorus]

Eb|---------------|
Bb|---------------|
Gb|-------------5-|
Db|-0---8---3---5-| 
Ab|-0---8---3---3-|
Db|-0---8---3-----|

second part

Eb|---------------|
Bb|---------------|
Gb|---------------|
Db|-0---8---3---1-| 
Ab|-0---8---3---1-|
Db|-0---8---3---1-|

[Verse 2]
Palm Muted

Eb|----------------------------|
Bb|----------------------------|
Gb|----------------------------|
Db|-----------------5-0-0-1--3-|
Ab|-00-0-00-0-00-0--5-0-0-1--3-|
Db|-00-0-00-0-00-0--5-0-0-1--3-|

Main Riff 

Chorus


[Bridge]

Eb|-------------|
Bb|-------------|
Gb|-------------|
Db|-0-1-1-3-1-0-| X4
Ab|-0-1-1-3-1-0-|
Db|-0-1-1-3-1-0-|

then

Eb|----------------------------------------------------------------------|
Bb|----------------------------------------------------------------------|
Gb|----------------------------------------------------------------------|
Db|-1-1-1-1-1-1-1-1-5-5-5-5-5-5-5-5-3-3-3-3-3-3-3-3-1-1-1-1--------------|
Ab|-1-1-1-1-1-1-1-1-5-5-5-5-5-5-5-5-3-3-3-3-3-3-3-3-1-1-1-1--------------|
Db|-1-1-1-1-1-1-1-1-5-5-5-5-5-5-5-5-3-3-3-3-3-3-3-3-1-1-1-1--0-1-1-3-1-0-|

Chorus X2

Main Riff

Thats It 
Enjoy.

Kevin P.    

Added On December 5th, 2013

SHARE

Comments

blog comments powered by Disqus

VERSIONS

ADVERTISEMENT