Red Tabs

Fight Inside

1 versions

TAB

            Band:   Red
Song:   Fight Inside
Album:  Innocence & Instinct
Tuning: Bb F Bb Eb G C

Before you read the tab I know what you’re all thinking “what a crazy tuning”!
This is the tuning RED used for this song (influenced by Breaking Benjamin).
Also I heard this song because it got leaked online. Sorry but the rest of you
can wait for the release from the band to hear it, I have to build the hype.

Legend
p-pull off                    h-hammer on                     /-slide up

Intro: Guitar for Piano (Clean)
 C|---------------------------------------------------------------------------|
 G|--------15---------15-----------13---------13-----15----13---15----13------|
Eb|--14-12------14-12--------14-12------14-12-----------12---------12---------|
Bb|---------------------------------------------------------------------------|
 F|---------------------------------------------------------------------------|
Bb|---------------------------------------------------------------------------|
                                                                              |
Intro: Guitar for Piano (Clean)                                               |
 C|-------------------------------------17------------------------------------|
 G|---------------------------------------------------------------------------|
Eb|---------------------------------------------------------------------------|
Bb|---------------------------------------------------------------------------|
 F|---------------------------------------------------------------------------|
Bb|---------------------------------------------------------------------------|

Intro: Guitar for Piano (Clean)
 C|---------------------------------------------------------------------------|
 G|--13---------------------------------15---------15---------13---------13---|
Eb|--14h15-14-12-14--15-14-12-14--14-12------14-12------14-12------14-12------|
Bb|---------------------------------------------------------------------------|
 F|---------------------------------------------------------------------------|
Bb|---------------------------------------------------------------------------|
                                                                              |
Intro: Guitar for Piano (Clean)                                               |
 C|-------------------------------------17-------------------------17---------|
 G|---------------------------------------------------------------------------|
Eb|---------------------------------------------------------------------------|
Bb|---------------------------------------------------------------------------|
 F|---------------------------------------------------------------------------|
Bb|---------------------------------------------------------------------------|

Intro: Guitar for Piano (Clean)
 C|---------------------------------------------------------------------------|
 G|--15----13---15----13------13----------------------------------------------|
Eb|-----12---------12---------14h15-14-12-14--15-14-12-14---------------------|
Bb|---------------------------------------------------------------------------|
 F|---------------------------------------------------------------------------|
Bb|---------------------------------------------------------------------------|
                                                                              |
Intro: Guitar for Piano (Clean)                                               |
 C|---------------------------------17--------18------------------------------|
 G|---------------------------------------------------------------------------|
Eb|---------------------------------------------------------------------------|
Bb|---------------------------------------------------------------------------|
 F|---------------------------------------------------------------------------|
Bb|---------------------------------------------------------------------------|

Intro: Guitar 1 (Distorted)
 C|---------------------------------------------------------------------------|
 G|---------------------------------------------------------------------------|
Eb|-----------------5-/7--------------------8-/10--------------------5-/7-----|
Bb|-----------------x--x--------------------x--x---------------------x--x-----|
 F|-----------------3-/5--------------------6-/8---------------------3-/5-----|
Bb|--5--0--3-h5--0--------0--6--0--5-h6--0---------0--5--0--3-h5--0-----------|

Intro: Guitar 1 (Distorted)
 C|---------------------------------------------------------------------------|
 G|---------------------------------------------------------------------------|
Eb|--------------------8-\5-/7-----------------5-/7--------------------8-/10--|
Bb|--------------------x--x--x-----------------x--x--------------------x--x---|
 F|--------------------6-\3-/5-----------------3-/5--------------------6-/8---|
Bb|--0--6--0--5-h6--0-----------5--0--3-h5--0--------0--6--0--5-h6--0---------|

Intro: Guitar 1 (Distorted)
 C|---------------------------------------------------------------------------|
 G|---------------------------------------------------------------------------|
Eb|--------------------5-/7--------------------8-\5-/7------------------------|
Bb|--------------------x--x--------------------x--x--x------------------------|
 F|--------------------3-/5--------------------6-\3-/5------------------------|
Bb|--0--5--0--3-h5--0--------0--6--0--5-h6--0---------------------------------|

Verse 1: Guitar for Piano (Clean) PLAY ENTIRE VERSE TWO TIMES
 C|---------------------------------------------------------------------------|
 G|--------15---------15-----------13---------13-----15----13---15----13------|
Eb|--14-12------14-12--------14-12------14-12-----------12---------12---------|
Bb|---------------------------------------------------------------------------|
 F|---------------------------------------------------------------------------|
Bb|---------------------------------------------------------------------------|

Verse 1: Guitar for Piano (Clean)
 C|---------------------------------------------------------------------------|
 G|--13---------------------------------15---------15---------13---------13---|
Eb|--14h15-14-12-14--15-14-12-14--14-12------14-12------14-12------14-12------|
Bb|---------------------------------------------------------------------------|
 F|---------------------------------------------------------------------------|
Bb|---------------------------------------------------------------------------|

Verse 1: Guitar for Piano (Clean)
 C|---------------------------------------------------------------------------|
 G|--15----13---15----13------13----------------------------------------------|
Eb|-----12---------12---------14h15-14-12-14--15-14-12-14---------------------|
Bb|---------------------------------------------------------------------------|
 F|---------------------------------------------------------------------------|
Bb|---------------------------------------------------------------------------|

Chorus: Guitar 1 (Distorted)
 C|---------------------------------------------------------------------------|
 G|---------------------------------------------------------------------------|
Eb|---------------------------------------------------------------------------|
Bb|--0---0-0-0-0-0-0---3---3-3-3-3-3-3---8---8-8-8-8-8-8---5---5-5-5-5-5-5-5--|
 F|--0---0-0-0-0-0-0---3---3-3-3-3-3-3---8---8-8-8-8-8-8---5---5-5-5-5-5-5-5--|
Bb|--0---0-0-0-0-0-0---3---3-3-3-3-3-3---8---8-8-8-8-8-8---5---5-5-5-5-5-5-5--|

Chorus: Guitar 1 (Distorted)
 C|---------------------------------------------------------------------------|
 G|---------------------------------------------------------------------------|
Eb|---------------------------------------------------------------------------|
Bb|--0---0-0-0-0-0-0---3---3-3-3-3-3-3---8---8-8-8-8-8-8---10--10101010101010-|
 F|--0---0-0-0-0-0-0---3---3-3-3-3-3-3---8---8-8-8-8-8-8---10--10101010101010-|
Bb|--0---0-0-0-0-0-0---3---3-3-3-3-3-3---8---8-8-8-8-8-8---10--10101010101010-|

Post Chorus: Guitar 1 (Distorted)
 C|---------------------------------------------------------------------------|
 G|---------------------------------------------------------------------------|
Eb|-----------------5-/7--------------------8-/10--------------------5-/7-----|
Bb|-----------------x--x--------------------x--x---------------------x--x-----|
 F|-----------------3-/5--------------------6-/8---------------------3-/5-----|
Bb|--5--0--3-h5--0--------0--6--0--5-h6--0---------0--5--0--3-h5--0-----------|

Post Chorus: Guitar 1 (Distorted)
 C|---------------------------------------------------------------------------|
 G|---------------------------------------------------------------------------|
Eb|--------------------8-\5-/7------------------------------------------------|
Bb|--------------------x--x--x------------------------------------------------|
 F|--------------------6-\3-/5------------------------------------------------|
Bb|--0--6--0--5-h6--0---------------------------------------------------------|


PLAY VERSE 1 AS VERSE 2

PLAY CHORUS

(I’LL HAVE THE BRIDGE SOON)

PLAY CHORUS    

Added On December 16th, 2013

SHARE

Comments

blog comments powered by Disqus

ADVERTISEMENT