Regurgitator Tabs

Polyester Girl

1 versions

TAB

            Polyester Girl Tab by Regurgitator


Polyester Girl by Regurgitator.

transcribed by Tim (hairdonut@goplay.com)

Intro/ Chorus
e|--------------------------------------------------------------------------|
b|--------------------------------------------------------------------------|
g|---------0-0-----------------------1-1------------------------------------|
d|---1-1-------------- 1-1---3-3---------------0h1--------------------------|
a|----------------3-3-----------------------1-1-----------------------------|
E|--------------------------------------------------------------------------|

Verse
e|----------------------------------------------------------------------------|
b|------------------------6------6--------------------------------------------|
g|--8------8-5------5-5------5-3-5-3-5----------------------------------------|
d|--8------8-5------5-3------3-3-5-3-5----------------------------------------|
a|--6------6-3------3------------1-3-1-3--------------------------------------|
E|----------------------------------------------------------------------------|

Bridge or something
e|---------------------------------------------------------------------------|
b|--------------4-------4--9---------9---------------------------------------|
g|--5------5--3-------3--8---------8--4--------------------------------------|
d|--5------5--1-------1--6---------6--4--------------------------------------|
a|--3------3------------------------------2----------------------------------|
E|---------------------------------------------------------------------------|

If it's shit or you have a question or something, mail me at
hairdonut@goplay.com
I hope I've written it right
The Oz Page is great. Keep up the good work.    

Added On December 5th, 2013

SHARE

Comments

blog comments powered by Disqus

ADVERTISEMENT