Reik Tabs

Me Duele Amarte

2 versions

TAB

            Me Duele Amarte - Reik

capo 1
e|-----------------------------------|
B|-----------------------------------|
G|-----5-6-6/8--------6/8--8/10/8-6--|
D|-6/8----------3/5-8----------------|
A|-----------------------------------|
E|-----------------------------------|
             C
Me Duele Amarte
       G              Am
Sabiendo Que ya Te perdi
      Em                F
Tan Solo Quedara la Lluvia
                C                   G
Mojando mi Llanto y me hablara de ti
             C
Me Duele Amarte
       G                 Am
Los Sueños Que eran para ti
        Em                F
Se pierden con cada palabra
             C                     G
Con cada Momento que espere de Vivir...
           Am
Me duele mas imaginar
           Em
Que tu te vas y dejaras
          F                         G
Detras de ti, Tu ausencia en mis brazos
           Am
Me Duele Tanto sospechar
            Em
Que ni tu sombra Volvera
                   F           G
Para abrigar mi alma en pedazos...
      C       G    Am    Em      F
Me duele amarte asi, hasta morir
                 C               G
lansandome a la nada viendote partir
      C     G       Am     Em      F
Me duele aquel abril, cuando te vi
                   C                  G
por vez primera y dije que eras para mi
                 C
me duele amarte tanto...

e|----------------------------------------------------------------|
B|----------------------------------------------------------------|
G|-----5-6-6/8--------6/8--8/10-8-6/8/5---6-8/10-8-------8/10/8-5-|
D|-6/8----------3/5-8-------------------8----------3/5-8----------|
A|----------------------------------------------------------------|
E|----------------------------------------------------------------|
             C
Me Duele Amarte
       G                 Am
Los Sueños Que eran para ti
        Em                F
Se pierden con cada palabra
             C                     G
Con cada Momento que espere de Vivir...
           Am
Me duele mas imaginar
           Em
Que tu te vas y dejaras
          F                         G
Detras de ti, Tu ausencia en mis brazos
           Am
Me Duele Tanto sospechar
            Em
Que ni tu sombra Volvera
                   F           G
Para abrigar mi alma en pedazos...
      C       G    Am    Em      F
Me duele amarte asi, hasta morir
                 C               G
lansandome a la nada viendote partir
      C     G       Am     Em      F
Me duele aquel abril, cuando te vi
                   C                  G
por vez primera y dije que eras para mi
                 C
me duele amarte tanto...    

Added On December 16th, 2013

SHARE

Comments

blog comments powered by Disqus

VERSIONS

ADVERTISEMENT