REM Tabs

That Someone Is You

1 versions

TAB

            ------------------------------------------------------------------------
                THAT SOMEONE IS YOU - REM
------------------------------------------------------------------------
Tabbed by: Barnaby Wilde
Email:

Intro/Chorus to Verse Bridge: G

Verse
e|-5---5---4---|
B|-5---7---5---|
G|-6---7---6---|
D|-7---7---6---|
A|-7---5---4---|
E|-5---5---4---|

Chorus
e|-0---2---1---1---2---0---2---0---2---0---2---0-|
B|-0---2---1---1---3---0---3---2---3---2---3---2-|
G|-1---3---2---2---4---1---2---2---2---2---2---2-|
D|-2---4---3---3---4---2---0---2---0---2---0---2-|
A|-2---4---3---3---2---2-------0-------0-------0-|
E|-0---2---1---1---2---0-------0-------0-------0-|

End (From last G Bridge)
e|-3---2---0---2---0---2---0---3---2---|
B|-3---3---2---3---2---3---2---3---2---|
G|-4---2---2---2---2---2---2---4---3---|
D|-5---0---2---0---2---0---2---5---4---|
A|-5-------0-------0-------0---5---4---|
E|-3-------0-------0-------0---3---2---|    

Added On December 16th, 2013

SHARE

Comments

blog comments powered by Disqus

ADVERTISEMENT