Rent Tabs

Without You

2 versions

TAB

            Without You Tab by Rent


hey this is just the main riff from Without You.......here it goes
-----------------------------------------------------------------------------|
--1-------1-------1-------1-------1-------1-------1-------1------------------|
----0---0---0---0---0---0---0---0---0---0---0---0---0---0---0---0------------|
------2-------2-------0-------0-------2-------2-------0-------0--------------|
-----------------------------------------------------------------------------|
-----------------------------------------------------------------------------|

or the version from the musical.......

-----------------------------------------------------------------------------|
--3-------3-------3-------3-------3-------3-------3-------3------------------|
----2---2---2---2---2---2---2---2---2---2---2---2---2---2---2----------------|
------4-------4-------2-------2-------4-------4-------2-------2--------------|
-----------------------------------------------------------------------------|
-----------------------------------------------------------------------------|

rent is a really cool musical but there arent many tabs
more people should work on tabbing rent stuff.....this is my second but i not very good 
it    

Added On December 5th, 2013

SHARE

Comments

blog comments powered by Disqus

VERSIONS

ADVERTISEMENT