Rob Thomas Tabs

Little Wonders

6 versions

TAB

            Little Wonders - Lead guitar

Intro/Pre-verse:

e---9-----9-7------------------|
B-----10-------10------10------|
G------------------9-------7---|
D------------------------------|
A------------------------------|
E------------------------------|x2

Chorus:

e--------12------12-----12----12-----9------9--|
B---10-------10------9-----9------7------7-----|
G----------------------------------------------|
D----------------------------------------------|
A----------------------------------------------|
E----------------------------------------------|x2

Verse 2:

e------------------------------------------------|
B-------12-12-------12-------12-------12-12---10-|
G---9------------9--------9--------9-------------|
D------------------------------------------------|
A------------------------------------------------|
E------------------------------------------------|x2

Bridge:

e---10---9---7---------9---10-----------12---9--|
B-----------------------------------------------|
G-----------------------------------------------|
D-----------------------------------------------|
A-----------------------------------------------|
E-----------------------------------------------|

End:

e---9-----9-7--------------------------------7-9-|
B-----10--------10-----10---------7-9-10---------|
G--------------------9-------9-7-----------------|
D------------------------------------------------|
A------------------------------------------------|
E------------------------------------------------|    

Added On December 16th, 2013

SHARE

Comments

blog comments powered by Disqus