Rodriguez Tabs

Sin Documentos

1 versions

TAB

            Sin Documentos

INTRO

|---------------------------|--------------------------|
|---------------------------|--------------------------|
|--7-7-7-7-8-7------------7-|-7-7-7-7-8-7------------7-|
|--------------8--------8---|-------------7--------7---|
|-----------------10--------|----------------9---------|
|---------------------------|--------------------------|

|----------------------------------------------------|
|----------------------------------------------------|
|-7-7--10-8-7---5-7-5---3-5-3----3-2-2-2------8--7v--|
|----------------------------------------------------|
|----------------------------------------------------|
|----------------------------------------------------|

Gm                     D
Dejame atravesar el viento sin documentos,
       Eb                 D
que lo hare por el tiempo que tuvimos
Gm
porque no queda salida,
            D
porque pareces dormida
 Eb
Porque buscando tu sonrisa
    D
estaria toda mi vida
   Eb                         D
Quiero ser el unico que te muerda la boca
   Eb                              D
Quiero saber que la vida contigo no va a terminar

Dejame que te cierre esta noche los ojos
y mañana vendre con un cigarro a la cama
Porque no tengo mas intenciones
que seguir bebiendo
de esta copa que no esta tan rota

Quiero ser el unico que te muerda la boca
Quiero saber que la vida contigo no va a terminar

        Gm
Porque si, porque si, porque si,
                 D
porque en esta vida no quiero pasar
                 Eb          D
mas de un dia entero sin ti
Porque si, porque si, porque si,
porque mientras espero,
por ti me muero y no quiero seguir asi

INTRO

Dejame atravesar el viento sin documentos,
que lo hare por el tiempo que tuvimos
porque no queda salida,
porque pareces dormida
Porque buscando tu sonrisa
estaria toda mi vida
Quiero ser el unico que te muerda la boca
Quiero saber que la vida contigo no va a terminar

Porque si, porque si, porque si,
porque en esta vida no quiero pasar
mas de un dia entero sin ti
Porque si, porque si, porque si,
porque mientras espero,
por ti me muero y no quiero seguir asi


Solo

|--------------------------------------|
|--------------------------------------|
|--------------------------12-10-------|
|-(10e)11e10-8-10e12-10/12-------12-10-|
|--------------------------------------|
|--------------------------------------|

|------------------------------------|
|------------------------------------|
|------------------------------------|
|-8-10e11e10-8-10t8-7m8t7------------|
|-------------------------9----------|
|---------------------------11-10----|

|------------------------------------|
|------------------------------------|
|------------------------------------|
|------8-10-8-10e11-10-8-10t8----8---|
|-8/10------------------------10-----|
|------------------------------------|

|------------------------------------|
|------------------------------------|
|----------12-10e11----10------------|
|-10e11-12----------------12-10/12---|
|------------------------------------|
|------------------------------------|

|-------------------------------------|
|------11-13-(13e)14e13-11------------|
|-7/12---------------------12---10e12-|
|-------------------------------------|
|-------------------------------------|
|-------------------------------------|

|-------------------------------------|
|-8-----------------------------------|
|---10-7------10e11.5-7----7--7-------|
|--------10-8-----------10------10e11-|
|-------------------------------------|
|-------------------------------------|

|------------------------------------|
|------------------------------------|
|------------------------------------|
|e10-8-----------------8m10-8-10e11--|
|-----------------8/10---------------|
|------10---10-11--------------------|

|------------------------------------|
|------------------------------------|
|---------------------12-------12----|
|-10t8m10—8/10-10/12-----10m12-------|
|------------------------------------|
|------------------------------------|

|------------------------------------|
|---------------------------------11-|
|-------12-------12-------12-8/12----|
|-10m12----10m12----10m12------------|
|------------------------------------|
|------------------------------------|

|--------------------------------------|
|11----13e14-13e14-13e14-13e14-(13e)14-|
|---12---------------------------------|
|--------------------------------------|
|--------------------------------------|
|--------------------------------------|

|-------------------------------------|
|-14e13-11----13----11e12e11e12e11e12-|
|----------12----12-------------------|
|-------------------------------------|
|-------------------------------------|
|-------------------------------------|

|-------------------------------------|
|-15t11-15-15-15t11----15-15t11----15-|
|-------------------12----------12----|
|-------------------------------------|
|-------------------------------------|
|-------------------------------------|

|------------------------------------|
|-15t11----15-15-15t11----15/--18-18-|
|-------12-------------12------------|
|------------------------------------|
|------------------------------------|
|------------------------------------|

|------------------------------------|
|-18-18-18-18-18-17-16-15---------15-|
|---------------------------17e18----|
|------------------------------------|
|------------------------------------|
|------------------------------------|

|-------15---------15----------15----|
|-18e19---------------15-18e19----18-|
|------------17e18-------------------|
|------------------------------------|
|------------------------------------|
|------------------------------------|

|----------15----------15-------------|
|-15----------15-18e19----18-15-16t15-|
|----17e18----------------------------|
|-------------------------------------|
|-------------------------------------|
|-------------------------------------|

|-------------------------------------|
|----------13-(13e)14-14e13t11-13e14e-|
|-17-e18------------------------------|
|-------------------------------------|
|-------------------------------------|
|-------------------------------------|

|------------13-----------------------|
|13-11-13e14----13e14—-11----11-------|
|-------------------------12----12/14-|
|-------------------------------------|
|-------------------------------------|
|-------------------------------------|

|-------------------------------------|
|-------------------------------------|
|12...-11....-------------------------|
|-------------13...-12----------------|
|-------------------------------------|
|-------------------------------------|

Quiero ser el unico que te muerda la boca
Quiero saber que la vida contigo no va a terminar
Ay! quiero ser el unico que te muerda la boca
Quiero saber que la vida contigo no va a terminar

Porque si, porque si, porque si,
porque en esta vida no quiero pasar
mas de un dia entero sin ti
Porque si, porque si, porque si,
porque mientras espero,
por ti me muero y no quiero seguir asi

INTRO    

Added On December 16th, 2013

SHARE

Comments

blog comments powered by Disqus

ADVERTISEMENT