Sam Palladio And Clare Bowen Tabs

When The Right One Comes Along

1 versions

TAB

            From the TV Show Nashville, performed by Sam Palladio and Clare Bowen.
Original is by Striking Matches.

One of my first tabs...its not perfect but sounds pretty good to me.

"When The Right One Comes Along"


Intro:
                    C#m   A       B     E
e-----7-9--7--9------6----0-------0-4-0------------|
B-7s9---9-----9--5-7-5-7--2----5--2----------5-----|
G-------9-----9------6----2-4s6---2-----1-4s6--1h2-|
D-------7-----9------6----2-------4-----2------2---|
A-------0-----7------4----0-------2-----2------2---|
E-------0-----0------x----0-------0-----0------0---|

Verses:

  A  E  C#m  A   A  E  B           A  E C#m   A Abm F#m
e-0--0--6----0---0--0--4-----------0--0--0----0--0---2---|
B-2--0--5-7--2---2--0--4------7----2--0--5-7--6--4---2-5-|
G-2--1--6----2---2--1--4--4s8---4--2--1--6----5--4---2---|
D-2--2--6----2---2--2--4-----------2--2--6----7--6---4---|
A-0--2--4----0---0--2--2-----------0--0--4----7--6---4---|
E-0--0--x----0---0--0--0-----------0--0--4----5--4---2---|

  B          E   E
e-0--4--2----0---0-------|
B-4--4-------0---0-------|
G-4--4-------1h2-1-------|
D-4----------2---2-------|
A-2----------2---2-------|
E-0----------0---0-------|

Bridge:
(there is a picking pattern to Am and E...didn't tab out..just try some randomn mid/high strings)

  Am     Am  E       Am  E    C#m Abm F#m  B
e---------0--0-2-4-2--0--0-----4---0---2---0-----------|
B---------1--0--------1--0-----5---4---2---4-----7-----|
G---1--4--2--1--------2--1-----6---4---2---4--4s8------|
D-2-------2--2--------2--2--1--6---6---4---4-----------|
A---------0--2--------0--2-----4---6---4---2-----------|
E---------0--0--------0--0-----x---4---2---0-----------|    

Added On December 16th, 2013

SHARE

Comments

blog comments powered by Disqus

ADVERTISEMENT