Say Anything Tabs

Into The Night

1 versions

TAB

            In To The Night Tab by Say Anything


Its not too bad once you get the hang of it...

theres two guitars here so im gonna do only one. so there.
e------------------------------------------------------------------|
b-----------5------------------------------------------------------|
g---------6--6-------5---------------------------------------------|
d-------6------6---6--6---a buncha times ending on----4------------|
a-----4-----------6-----6-----------------------------------4------|
e----------------4-------------------------------------------2-----|

then:

palm mute in beginning and do ur own rthym
e--------------------------------------|
b--------------------------------------|
g--------------------------------------|
d---6--8--9----9-8-7-6----6--8--9------|
a---4--6--7----7-6-5-4----4--6--7------|
e--------------------------------------|

i saw a tear on a rose and i ripped it off for you
e--------------------------------------|
b--------------------------------------|
g----6-6-6-------9-9-9-4----6-6-6------|
d----6-6-6-6-6-6-9-9-9-4-4--6-6-6------|
a----4-4-4-6-6-6-7-7-7-2-4--4-4-4------|
e----------4-4-4------------2----------|

you as i gag on my guts cus im watching u give up. . .
e--------------------------------------|
b--------------------------------------|
g--6-6-6--9-8-------9-8--9-9-9-4---6---|
d--6-6-6--7-6-6-6-6-7-6--9-9-9-4-4-6---|
a--4-4-4-------6-6-6-----7-7-7-2-4-4---|
e--------------4-4-4---------------2---|-------------------------------------------------------------------
	            into the night - say anything
-------------------------------------------------------------------
Tabbed by: guyalexanderr
Email: guy-alexander@hotmail.co.uk

Tuning: standard

The other tab didnt do justice to this amazing song (probably my favourite say anything songs)
so heres my version :]

i think its spot on,
but if you have a suggestion leave a comment.


0:00-0:37
intro / verse rhythm
e|---------------------------|x3  |------------------|x1
B|--------5------------------|    |------------------|
G|------6---6---------5------|    |------------------|        x3
D|----6-------6-----6---6----|    |--4-4-4-4-4-4--4--|
A|--4-------------6-------6--|    |--4-4-4-4-4-4--4--|
E|--------------4------------|    |--2-2-2-2-2-2--2--|
				     v ^ v v ^ v  v

0:00-0:10
intro lead
e|-----------------------------------------|
B|--4--5--9--5--4--5--2--1--4--5--9--9--7--|
G|-----------------------------------------|
D|-----------------------------------------|
A|-----------------------------------------|
E|-----------------------------------------|


0:39-0:51
pre chorus rhythm
e|-----------------------------------------------|
B|-----------------------------------------------|
G|-----------------------------------------------|
D|--6x6---8x6---9x10---9-8-7-6----6x6---8x6---9--|
A|--4-----6-----7------7-6-5-4----4-----6-----7--|
E|-----------------------------------------------|
    .     .     .                 .     .


0:46-0:50
pre chorus lead
e|---------------------------------|
B|---------------------------------|
G|--9------9------9------9------9--|
D|----9------9------7------7-------|
A|------7------7------7------7-----|
E|---------------------------------|


0:51-0:58
chorus rhythm
e|-----------------------------------|
B|-----------------------------------|
G|--------6-6-6---------9-9-9--4-----|
D|--6-6-6-6-6-6--6-6-6--9-9-9--4--4--|
A|--6-6-6-4-4-4--6-6-6--7-7-7--2--4--|
E|--4-4-4--------4-4-4------------2--|


0:59-1:05
chorus rhythm
e|---------------------------------------------|
B|---------------------------------------------|
G|---6-6-6-------------------9-9-9-------4-----|
D|---6-6-6--6/4--6-6-6--6/4--9-9-9--6/4--4--4--| (the 6/4 can be played by the lead,
A|---4-4-4-------6-6-6-------7-7-7-------2--4--|   but its just as easy for the rhythem 
play it)
E|---------------4-4-4----------------------2--|


1:06-1-11
chorus rhythm
e|------------------------------------------|
B|------------------------------------------|
G|--6-6-6--6-6------------9-9-9--9-9--4-----|
D|--6-6-6--6-6-6-6-6--6-6-9-9-9--9-9--4--4--|
A|--4-4-4--4-4-6-6-6--6-6-7-7-7--7-7--2--4--|
E|-------------4-4-4--4-4----------------2--|


1:12-1:15
chorus ending rhythm
e|------------------|
B|------------------|
G|--11-----------4--|
D|--11--6-----6--4--|
A|--9-------6----2--|
E|--------4---------|


1:19-1:31
interlude rhythm
e|---------------------------|x3  |------------------|x1
B|--------5------------------|    |------------------|
G|------6---6---------5------|    |------------------|        x3
D|----6-------6-----6---6----|    |--4-4-4-4-4-4--4--|
A|--4-------------6-------6--|    |--4-4-4-4-4-4--4--|
E|--------------4------------|    |--2-2-2-2-2-2--2--|
				     v ^ v v ^ v  v

1:19-1:31
interlude lead
e|---------------------------------------------------------------------|
B|--4--5--9--9/10--9--7--5--4-4--2--1--2-2-2-4-4-4-4/7--5--4--2--h4p2--|
G|---------------------------------------------------------------------|
D|---------------------------------------------------------------------|
A|---------------------------------------------------------------------|
E|---------------------------------------------------------------------|


1:32-1:58
verse 2 rhythm
e|--------------------------|x3  |-----------------------|x1
B|--------------------------|    |-----------------------|
G|---------6----------------|    |-----------------------|
D|------6--6--6-6-6--6-6-6--|    |--4--4-4-4-4--4-4-4-4--|        x2
A|----6----4--6-6-6--6-6-6--|    |--4--4-4-4-4--4-4-4-4--|
E|--4---------4-4-4--4-4-4--|    |--2--2-2-2-2--2-2-2-2--|
				    v  ^ v ^ v  ^ v ^ v

1:32-1:58
verse 2 lead
e|--4--|
B|--5--|
G|--6--| (lead plays this chord at various points
D|--6--|   firstly just when the rhythm is playing it
A|--4--|    then does it on its own)
E|-----|


1:59-2:10
pre chorus rhythm
e|-------------------------------------------------|
B|-------------------------------------------------|
G|-------------------------------------------------|
D|--6x6---8x6---9x10---9-8-7-6----6x6---8x6---9x6--|
A|--4-----6-----7------7-6-5-4----4-----6-----7----| (gradually let go of the palm mute 
last 6 notes)
E|-------------------------------------------------|
    .     .     .                 .     .     .


2:12-2:30
chorus rhythm
e|------------------------------------------|
B|------------------------------------------|
G|--6-6-6--6-6------------9-9-9--9-9--4-----|
D|--6-6-6--6-6-6-6-6--6-6-9-9-9--9-9--4--4--|
A|--4-4-4--4-4-6-6-6--6-6-7-7-7--7-7--2--4--|
E|-------------4-4-4--4-4----------------2--|


2:12-2:30
chorus lead
e|--------|
B|--------| (the lead plays this on the last two hits of each chords
G|--6--4--|
D|--6--4--|
A|--4--2--|
E|--------|


2:31-2:36
chorus ending 2 rhythm
e|-------------------------------|
B|-------------------------------|
G|--11-----------------4--4-4-4--|
D|--11----11x5--4-4-4--4--4-4-4--|
A|--9-----9-----4-4-4--2--2-2-2--|
E|--------------2-2-2------------|
          .


2:38-2:49
pre chorus rhythm
e|-------------------------------------------------|
B|-------------------------------------------------|
G|-------------------------------------------------|
D|--6x6---8x6---9x10---9-8-7-6----6x6---8x6---9x6--|
A|--4-----6-----7------7-6-5-4----4-----6-----7----|
E|-------------------------------------------------|
    .     .     .                 .     .     .


2:51-3:01
pre chorus rhythm
e|-----------------------------------------------|
B|-----------------------------------------------|
G|-----------------------------------------------|
D|--6x6---8x6---9x10---9-8-7-6----6x6---8x6---9--|
A|--4-----6-----7------7-6-5-4----4-----6-----7--|
E|-----------------------------------------------|
    .     .     .                 .     .


2:40-2:48
pre chorus lead
e|--------------------------------|
B|--7--5--4--2--0--2--0-----------|
G|-----------------------4--2--1--|
D|--------------------------------|
A|--------------------------------|
E|--------------------------------|


3:03-3:10
chorus rhythm
e|----------------------------------------------------|
B|----------------------------------------------------|
G|------------6-6-6--6-6------------9-9-9--9-9--4-----|
D|--x--6-6-6--6-6-6--6-6-6-6-6--6-6-9-9-9--9-9--4--4--|
A|--x--6-6-6--4-4-4--4-4-6-6-6--6-6-7-7-7--7-7--2--4--|
E|--x--4-4-4-------------4-4-4--4-4----------------2--|


3:11-3:16
chorus rhythm
e|------------------------------------------|
B|------------------------------------------|
G|--6-6-6--6-6------------9-9-9--9-9--4-----|
D|--6-6-6--6-6-6-6-6--6-6-9-9-9--9-9--4--4--|
A|--4-4-4--4-4-6-6-6--6-6-7-7-7--7-7--2--4--|
E|-------------4-4-4--4-4----------------2--|


3:17-3:23
chorus rhythm
e|------------------------------------------|
B|------------------------------------------|
G|--6-6-6--6-6------------9-9-9--9-9--4-----|
D|--6-6-6--6-6-6-6-6--6-6-9-9-9--9-9--4--4--|
A|--4-4-4--4-4-6-6-6--6-6-7-7-7--7-7--2--4--|
E|-------------4-4-4--4-4----------------2--|


3:24-3:30
chorus ending lead
e|-------------------------|
B|-------------------------|
G|--11----13---8h9--13--4--|
D|--11--------------13--4--|
A|--9---------------11--2--|
E|-------------------------|


3:31-3:42
outro rhythm
e|---------------------------|x3  |-----------------------|x1
B|--------5------------------|    |-----------------------|
G|------6---6---------5------|    |-----------------------|
D|----6-------6-----6---6----|    |--4--4-4-4-4--4-4-4-4--|
A|--4-------------6-------6--|    |--4--4-4-4-4--4-4-4-4--|
E|--------------4------------|    |--2--2-2-2-2--2-2-2-2--|
				     v  ^ v ^ v  ^ v ^ v

3:33-3:40
outro lead
e|----------------------------------------------|
B|--4--5--9--9/10--10p9p7--5--5---10p9p7--5--5--|
G|----------------------------------------------|
D|----------------------------------------------|
A|----------------------------------------------|
E|----------------------------------------------|


| .  palm mute
| ^  up stum
| v  down stum
| /  slide up
| \  slide down
| h  hammer-on
| p  pull-off
| ~  vibrato
| +  harmonic
| x  Mute note    

Added On December 16th, 2013

SHARE

Comments

blog comments powered by Disqus

ADVERTISEMENT