Seether Tabs

Dont Believe

1 versions

TAB

            ----------------------------------------------------------------------------
			     Don't Believe - Seether
----------------------------------------------------------------------------
Tabbed by: Andrew Pichot
Email: tamer_of_the_squirrels@yahoo.com

Tuning: Standard
============================================================================
Before You Rate It Badly, I Tabbed This With An Acoustic, So Cut Me Some Slack.
And I'm Not Saying This Is How Seether Plays It; I'm Just Saying This Is How I Play It.
============================================================================

INTRO:
e|------------------|----------------------|
B|------------------|----------------------|
G|-------3-0-0------|-------3-3/5----------|
D|---3/5-------(x3)-|---3/5----------------|
A|-3----------------|-3--------------------|
E|------------------|----------------------|

PREVERSE:
(Listen for Rhythm)
e|----------------------|
B|----------------------|
G|----------------------|
D|-5-(x8)-7-(x4)-3-(x4)-| (X3) 
A|-3------5------1------|
E|----------------------|

Finish With:
e|--------------|
B|--------------|
G|--------------|
D|-5-(x8)-7-3-5-|
A|-3------5-1-3-|
E|--------------|

VERSE:
e|-------------------|
B|-------------------|
G|-------0-----------|
D|---0-1--1-0--------|
A|-3---------------1-|
E|-------------------|

PRECHORUS:
"You've Taken All You Can Take..."
e|---------------------------------|--------------------------------------|
B|---------------------------------|--------------------------------------|
G|-555-555-5-5-5-5--555-555-0h1h0--|-555-555-5-5-5-5--555-555-5-5-5-5--7--|
D|-555-555-5-5-5-5--555-555------1-|-555-555-5-5-5-5--555-555-5-5-5-5--7--|
A|-333-333-3-3-3-3--333-333--------|-333-333-3-3-3-3--333-333-3-3-3-3--5--|
E|---------------------------------|--------------------------------------|

CHORUS:
e|------------------------------------|----11-|----------------------------|
B|------------------------------------|-13----|-Played With Chorus---------|
G|-55555555-88888888-3333333333333333-|-------|--Listen For Timing---------|
D|-55555555-88888888-3333333333333333-|-------|----------------------------|
A|-33333333-66666666-1111111111111111-|-------|----------------------------|
E|--------------------(1, not 11)-----|-------|----------------------------|

AFTER CHORUS:
e|-----------------------------------------------------|
B|-----------------------------------------------------|
G|-5-555--8-888--3-333-----8\5--5-555--8-888--3-333----|
D|-5-555--8-888--3-333-3-x-8\5--5-555--8-888--3-333-3--|
A|-3-333--6-666--1-111-3-x-6\3--3-333--6-666--1-111-3--|
E|---------------------1-x--------------------------1--|

SOLO:
e|-------------------------11----------------|
B|-8-10-8-10/11-10-8-10--11--11/13b-13-------|
G|-------------------------------------(x4)--|
D|-------------------------------------------|
A|-------------------------------------------|
E|-------------------------------------------|

SONG ORDER:
Intro
Preverse
Verse
Prechorus
Chorus
After Chorus
Verse
Prechorus
Chorus
Solo
Prechorus
Chorus (x2)
After Chorus
Outro *(Sorry, Don't Know It)*
===========================================================================    

Added On December 16th, 2013

SHARE

Comments

blog comments powered by Disqus

ADVERTISEMENT