Seether Tabs

Tongue

1 versions

TAB

            Tongue Tab by Seether


Song: Tongue
Band: Seether
This is the greatest song ever written.
Tuning: Drop C (Drop D tuned down 1/2 a step)

Intro/Verse.....Well the tongue inside my mouth is not for sale.
|----------------------------------------------------------------------|
|----------------------------------------------------------------------|
|-5s7---7--7-7-----5s7--7--7-7-----2-3-2-0----0---2-3-2-0---0----------|
|----------------------------------0-0-0-0--0---0-0-0-0-0-0---0--------|
|-3s5---5--5-5-----3s5--5--5-5-----------------------------------------|
|-----0--------0-0--------------0-0------------------------------------|

Pre-Chorus.....Cuz I dont believe in this world.
|-------------------------------------------------|
|-------------------------------------------------|
|-5--5-5--8--8-8-8--------------------------------|
|-5--5-5--8--8-8-8--5-5--1-1-1--5-5--1-1-1--------|
|-3--3-3--6--6-6-6--5-5--1-1-1--5-5--1-1-1--------|
|-------------------5-5--1-1-1--5-5--1-1-1--------|

Chorus.....And If I can rise above this.
|---------------------------------------------------|
|-3--3-3-3------------------------------------------|
|-2--2-2-2--5--5-5-5--5/7--7-7-7--5/7--7-7-7--------|
|-0--0-0-0--5--5-5-5--3/5--5-5-5--3/5--5-5-5--------|
|-0--0-0-0--3--3-3-3--3/5--5-5-5--3/5--5-5-5--------|
|-0--0-0-0------------3/5--5-5-5--3/5--5-5-5--------|

Bridge(Guitar 1)....Goodbye cruel world.
|------------------------------------------------------
|------------------------------------------------------
|------------------------------------------------------
|-5-5-5-5-5-5-5-5-5-5-5-5-5-5-5-5-5s7-3--5s7-3---------
|-5-5-5-5-5-5-5-5-5-5-5-5-5-5-5-5-3s5-1--3s5-1---------
|-5-5-5-5-5-5-5-5-5-5-5-5-5-5-5-5----------------------

Guitar 2
|-------------------------------------------------------------------------|
|-------------------------------------------------------------------------|
|--8-8-8-8--10-10-10-10--11-11-11-11--13-13-13-13--18--15--18--15---------|
|-------------------------------------------------------------------------|
|--6-6-6-6--8--8--8--8---9--9--9--9---11-11-11-11--16--13--16--13---------|
|-------------------------------------------------------------------------|    

Added On December 16th, 2013

SHARE

Comments

blog comments powered by Disqus

ADVERTISEMENT