Sevendust Tabs

Rumble Fish

3 versions

TAB

            Rumble Fish Tab by Sevendust


name: Bryan Rutherford

artist: Sevendust

SongTitle: Rumble Fish

Tabs: Sevendust
Rumble Fish


damn sevendust kicks ass

Drop D tuning   {dadgbe}

the song actually has two guitars, i'm just tabbing it for one.

Intro. the timing is a little tricky, you'll get it though.


 sb =slight bend P = pull off
|--------------------------------------------|
|------------fill---------------fill---------|
|-------------7p5----------------------------|
|----------------8-----------------***-------|
|-000-000-000-----0-000-000-00---------------|
|-000-000-000-----0-000-000-00---------------|


|--------------------------------------------------------
|--------------------------------------------------------
|-------------7p5----------------------------------------
|----------------8--------------------last fill----------
|000-000-000-------0-000-000-00--------------------------
|000-000-000-------0-000-000-00--5sbP3-0-2sbP0-6sbP4-----

**there is a little something here. it's in the background, i can't 
figure what he's doing, so good luck** and even if you figure out, i'm not 
sure how your gonna hit the 0's and it at the same time.

play the intro with the fills shown above 2 times.

then play just the 0's part without the fills for the verses. 
when the chorus starts, use the last fill to go into the following riff

chorus
 all these 5's on the high e, b, and g string are natural harmonics,, 
lay your finger gently over the strings and strum directly over the 5th 
fret  
|---------555555------------repeat this several times thru the 
|---------555555-harmonics          chorus.
|---------555555------------
|--7--5---------------------
|--7--5---------------------
|--7--5---------------------

thats basically it,, there is one other cool sounding fill that pops up 
every once in a while
this is what it is, just listen for it. 
slight bend, with artificial harmonic  =  sbAF

|---------------------------------------
|---------------------------------------
|---------------------------------------
|---------------------------------------
|---------------------------------------
|---5h7-5sbAF---------------------------

it's not a perfect tab, but it's good enough to amaze and impress your 
sevendust loving friends.

visit me online cause your bored. http://members.xoom.com/cyberbryan
comments or if you other sevendust tabs email me

therutherford@hotmail.com

laterz    

Added On December 12th, 2013

SHARE

Comments

blog comments powered by Disqus

VERSIONS

ADVERTISEMENT