Shankar Ehsaan Loy Tabs

Bol Na Halke Halke

1 versions

TAB

            -------------------------------------------------------------------------------
			     Bol Na Halke Halke - Shankar Ehsaan Loy
-------------------------------------------------------------------------------

Tabbed by:2ris2

Song: Bol Na Halke Halke
Movie: Jhoom Barabar Jhoom
Artist: Shankar-Ehsaan-Loy
Tuning: Standard
-------------------------------------------------------------------------------

Watch Ehsaan play this song:

http://www.youtube.com/watch?v=3-KhdoGTS3w&feature=related

-------------------------------------------------------------------------------

e|---------------------------------------------------------------------------|
B|---------------------------------------------------------------------------|
G|4--------------------------------------------------------------------------|
D|---8--7--5------------5b-----------5b-----------5b-------------------------|
A|------------7--5--7-------7--5h7-------7--5h7-------7-5--------------------|
E|---------------------------------------------------------------------------|

e|---------------------------------------------------------------------------|
B|---------------------------------------------------------------------------|
G|------0------------0-------------------------------------------------------|
D|---7-----7------7-----7---5b----------5b----------5b-----------------------|
A|4------------5----------------7--5h7-------7-5h7-------7--5----------------|
E|---------------------------------------------------------------------------|

e|---------------------------------------------------------------------------|
B|---------------------------------------------------------------------------|
G|------0------------0-------3/4--2--------3/4--2----------------------------|
D|---7-----7------7-----7------------5--2----------5--2----------------------|
A|4------------5-------------------------------------------------------------|
E|---------------------------------------------------------------------------|

e|---------------------------------------------------------------------------|
B|------------------3--------------2-----------------------------------------|
G|3/4--2---------0-----0--------------0--------------------------------------|
D|--------5---5-----------------2--------------------------------------------|
A|------------------------0--0-----------------------------------------------|
E|---------------------------------------------------------------------------|


e|---------------------------------------------------------------------------|
B|-------------------------------------------------3-------------2-----------|
G|3/4--2---------3/4--2---------3/4---2---------0-----0-------------0--------|
D|--------5--2-----------5--2------------5---5----------------2--------------|
A|-------------------------------------------------------0-0-----------------|
E|---------------------------------------------------------------------------|

e|--0------------------------------------------------------------------------|
B|--0------------------------------------------------------------------------|
G|--2------------------------------------------------------------------------|
D|--2------------------------------------------------------------------------|
A|--0------------------------------------------------------------------------|
E|--X------------------------------------------------------------------------|


Have fun jamming this solo! :D
************************************

| /   slide up
| \   slide down
| h   hammer-on
| p   pull-off
| ~   vibrato
| +   harmonic
| x   Mute note
| b   Bend
| pb  Pre-bend
| br  Bend release
| pbr Pre-bend release
| brb Bend release bend

************************************    

Added On December 16th, 2013

SHARE

Comments

blog comments powered by Disqus

ADVERTISEMENT