Skillet Tabs

Older I Get

1 versions

TAB

            Older I Get
Skillet

All right Skillet fans, worked on this one with my guitar teacher Jim Seales, I’m pretty
this tab is right. You might find some mistakes because apparently my copy of this song
recorded in mono so it was very difficult to find chords. If you find any mistakes, 
the comments!
(Also, During certain parts of the song the intro piece comes in, Its easy enough to
out when to play it on your own.)

/ = Slide Up
\ = Slide Down

Intro
Guitar 1

E[----------------------13----12--------------------------------------------------]
B[------------------------------------------------------------13-----13----12-----]
G[-------------12/14----------------14-------14\12--12------------------------12--]
D[--------------------------------------------------------------------------------]
A[--------------------------------------------------------------------------------]
E[--------------------------------------------------------------------------------]


E[---------------------13----12------------------------------------------------]
B[----------------------------------------------------------13----13-----15----]
G[---------12/14------------------14-------14\12--12-----------------------12--]
D[-----------------------------------------------------------------------------]
A[-----------------------------------------------------------------------------]
E[-----------------------------------------------------------------------------]


Intro
Guitar 2

(Any strum pattern sounds right for this song.)

                A-      C       Fmg7

E[----------0-----0------0-------]
B[----------1-----1------1-------]
G[----------2-----0------2-------]
D[----------2-----2------3-------]
A[----------0-----3--------------]
E[-------------------------------]

Verse

                A-      C       Fmg7

E[----------0-----0------0----------------------]
B[----------1-----1------1----------------------]
G[----------2-----0------2-----]        Repeat--] 4x
D[----------2-----2------3----------------------]
A[----------0-----3-----------------------------]
E[----------------------------------------------]


Verse 2

         D-        C/E

E[-----1--------0-----0----------------------]
B[-----3--------2-----1----------------------]
G[-----2--------0-----2----]         Repeat--] 2x
D[-----0--------4-----3----------------------]
A[-----0-------------------------------------]
E[-------------------------------------------]


Chorus

           C      Gsus         D-       C/E    Fmg7

E[-----0-------3----------1-------0------0------------------]
B[-----1-------1----------3-------2------1------------------]
G[-----0-------0----------2-------0------2----]     Repeat--] 2x
D[-----2-------0----------0-------4------3------------------]
A[-----3-------2--------------------------------------------]
E[--------------3-------------------------------------------]


Bridge

         A-     Fmg7        C           G

E[-----0-----0------------0--------3---]
B[-----1-----1------------1--------0---]
G[-----2-----2------------0--------0---]
D[-----2-----3------------2--------0---]
A[-----0------------------3---------2--]
E[-----------------------------------3-]

          A-       Fmg7          D-                 C/E         Fmg7

E[-----0-------0-------------0---------------0---------0-----------]
B[-----1-------1-------------3---------------2---------1-----------]
G[-----2-------2-------------2---------------0---------2-----------]
D[-----2-------2-------------0---------------4---------3-----------]
A[-----0-----------------------------------------------------------]
E[-----------------------------------------------------------------]


Closing

           C       Gsus            D-         C/E       Fmg7

E[------0------3-------------0---------0---------0---------------]
B[------1------1-------------3---------2---------1---------------]
G[------0------0-------------2---------0---------2---------------]
D[------2------0-------------0---------4---------3---------------]
A[------3------2-------------------------------------------------]
E[--------------3------------------------------------------------]

         C       Gsus      D-      C/E        Fmg7           F    C    F

E[-----0-------3-------0-------0---------0-------------1---0---1---------]
B[-----1-------1-------3-------2---------1-------------1---1---1---------]
G[-----0-------0-------2-------0---------2-------------2---0---2---------]
D[-----2-------0-------0-------4---------3-------------3---2---3---------]
A[-----3-------2---------------------------------------------3-----------]
E[--------------3--------------------------------------------------------]


And that will finish Older I Get – Skillet,  ENJOY!!!
PS SORRY THAT IT LOOKS A LITTLE FUNNY, I TYPED THIS IS MICROSOFT WORD BUT ITS STILL
TO FIGURE OUT EASILY!    

Added On December 16th, 2013

SHARE

Comments

blog comments powered by Disqus

ADVERTISEMENT