Smashing Pumpkins Tabs

For God And Country

1 versions

TAB

            Title: For God and Country (Acoustic Version Played Live 07)
Artist: Smashing Pumpkins
Album: Zeitgeist
Tuning: Standard


INTRO

e|--1----1---------3----0----1-----1----------3-|
B|--3----1----1----3----1----3-----3----1-----3-|
G|--2----2----2----0----0—---2-----2----2-----0-|
D|-------3----2----0----2----------3----2-----0-|
A|-------3---------2----3----------3----------2-|
E|-------1---------3---------------1----------3-|       x2

VERSE
                 
e|--1----1---------3----0----1-----1----------3-|
B|--3----1----1----3----1----3-----3----1-----3-|
G|--2----2----2----0----0—---2-----2----2-----0-|
D|-------3----2----0----2----------3----2-----2-|
A|-------3---------2----3----------3----------2-|
E|-------1---------3---------------1----------3-| 
                  
e|--1----1---------3----0----1-----1---|
B|--3----1----1----3----1----3-----3---|
G|--2----2----2----0----0—---2-----2---|
D|-------3----2----0----2----------3---|
A|-------3---------2----3----------3---|
E|-------1---------3---------------1---|        
           

CHORUS


e|-1---------1----1-|
B|-1----1----3----1-|
G|-2----2----2----2-|
D|-1----3---------3-|
A|-3--------------3-|
E|-1--------------1-|

e|-1---------1----1-----------|
B|-1----1----3----1-----------|
G|-2----2----2----2----1----1-|
D|-1----2---------3----2----1-|
A|-3--------------3----2----2-|
E|-1--------------1-----------|


VERSE


e|-----------------------|
B|-1----1-----1----1-----|
G|-2----0-----2----0-----|
D|-2----2-----2----2-----|
A|-----------------------|
E|-----------------------|

e|--1----1---------3----0---|
B|--3----1----1----3----1---|
G|--2----2----2----0----0—--|
D|-------3----2----0----2---|
A|-------3---------2----3---|
E|-------1---------3--------|    
   
e|--1----1---------3----|
B|--3----1----1----3----|
G|--2----2----2----0----|
D|-------3----2----0----|
A|-------3---------2----|
E|-------1---------3----|      x2

e|--1----1---------(3)----|
B|--3----1----1----(3)----|
G|--2----2----2----(0)----|
D|-------3----2----(0)----|
A|-------3---------(2)----|
E|-------1---------(3)----| 


VERSE

      
e|--1----1---------3----|
B|--3----1----1----3----|
G|--2----2----2----0----|
D|-------3----2----0----|
A|-------3---------2----|
E|-------1---------3----|  

e|--1----1---------3----0----1-----1----------3-|
B|--3----1----1----3----1----3-----3----1-----3-|
G|--2----2----2----0----0—---2-----2----2-----0-|
D|-------3----2----0----2----------3----2-----2-|
A|-------3---------2----3----------3----------2-|
E|-------1---------3---------------1----------3-| 

e|--1----1---------3----0----1-----1---|
B|--3----1----1----3----1----3-----3---|
G|--2----2----2----0----0—---2-----2---|
D|-------3----2----0----2----------3---|
A|-------3---------2----3----------3---|
E|-------1---------3---------------1---|                   

e|-----------------------|
B|-1----1-----1----1-----|
G|-2----0-----2----0-----|
D|-2----2-----2----2-----|
A|-----------------------|
E|-----------------------|


CHORUS


e|--1----1---------3----0---|
B|--3----1----1----3----1---|
G|--2----2----2----0----0—--|
D|-------3----2----0----2---|
A|-------3---------2----3---|
E|-------1---------3--------|       

e|--1----1---------3----|
B|--3----1----1----3----|
G|--2----2----2----0----|
D|-------3----2----0----|
A|-------3---------2----|
E|-------1---------3----|      x2

e|--1----1---------(3)----|
B|--3----1----1----(3)----|
G|--2----2----2----(0)----|
D|-------3----2----(0)----|
A|-------3---------(2)----|
E|-------1---------(3)----| 


VERSE


e|--1----1---------3----|
B|--3----1----1----3----|
G|--2----2----2----0----|
D|-------3----2----0----|
A|-------3---------2----|
E|-------1---------3----|

e|--1----1---------3----0----1-----1----------3-|
B|--3----1----1----3----1----3-----3----1-----3-|
G|--2----2----2----0----0—---2-----2----2-----0-|
D|-------3----2----0----2----------3----2-----2-|
A|-------3---------2----3----------3----------2-|
E|-------1---------3---------------1----------3-| 

e|-1----1---------3----0----1-----1---|
B|-3----1----1----3----1----3-----3---|
G|-2----2----2----0----0—---2-----2---|
D|------3----2----0----2----------3---|
A|------3---------2----3----------3---|
E|------1---------3---------------1---|                   


CHORUS


e|-1---------1----1-|
B|-1----1----3----1-|
G|-2----2----2----2-|
D|-1----3---------3-|
A|-3--------------3-|
E|-1--------------1-|

e|-1---------1----1-----------|
B|-1----1----3----1-----------|
G|-2----2----2----2----1----1-|
D|-1----2---------3----2----1-|
A|-3--------------3----2----2-|
E|-1--------------1-----------|


VERSE

   
e|-1---------1----1-|
B|-2----1----1----3-|
G|-2----0----2----2-|
D|------2----3------|
A|------3----3------|
E|-----------1------|       x3

e|-1---------1----1-----------|
B|-2----1----3----1-----------|
G|-2----0----2----2----1---2--|
D|------2---------3----2---2--|
A|------3---------3----2---1--|
E|----------------1-----------|

e|-----------------------|
B|-1----1-----1----1-----|
G|-2----0-----2----0-----|
D|-2----2-----2----2-----|
A|-----------------------|
E|-----------------------|

e|--1----1---------3----0---|
B|--3----1----1----3----1---|
G|--2----2----2----0----0—--|
D|-------3----2----0----2---|
A|-------3---------2----3---|
E|-------1---------3--------|       

e|--1----1---------3----|
B|--3----1----1----3----|
G|--2----2----2----0----|
D|-------3----2----0----|
A|-------3---------2----|
E|-------1---------3----|      x2

e|--1----1---------(3)----|
B|--3----1----1----(3)----|
G|--2----2----2----(0)----|
D|-------3----2----(0)----|
A|-------3---------(2)----|
E|-------1---------(3)----| 

e|--1----1---------3----|
B|--3----1----1----3----|
G|--2----2----2----0----|
D|-------3----2----0----|
A|-------3---------2----|
E|-------1---------3----|



OUTRO


e|-1----------1----1----1----3-|
B|-1----1-----3----1----1----3-|
G|-2----2-----2----2----2----0-|
D|-3----2----------3----3----0-|
A|-3---------------3----3----2-|
E|-1---------------1----1----3-|        x5

e|-1----------1----1---------------|
B|-1----1-----3----1-------------1-|
G|-2----2-----2----2----1----1---2-|
D|-3----2----------3----2----1---2-|
A|-3---------------3----2----2-----|
E|-1---------------1---------------|    

Added On December 16th, 2013

SHARE

Comments

blog comments powered by Disqus

ADVERTISEMENT