Snow Patrol Tabs

Absolute Gravity

2 versions

TAB

            Absolute Gravity Tab by Snow Patrol


Class Song from first album. enjoi

Bass Intro
G|------------|------------|
C|------------|------------|
G|--9-7-x220--|--9-7-x220--|
E|------------|------------|

Guitar Intro/Verse
E|----0-------|         |------------|
B|----0-------|         |------------|
G|----0-------|Guitar 1 |------------|Guitar 2
C|----4-------|         |------------|
G|----4--454--|         |------------|
E|--0---------|         |--00--55----| (throughout verse)

Chorus
|--------------|----0-------|----0-------|------------|
|--------------|----0-------|----0-------|------------|
|--998877665~--|----0-------|----0-------|--99887~----|
|--------------|----4-------|----4-------|------------|
|--------------|----4--454--|----4--454--|------------|
|--------------|--0---------|--0---------|------------|

Rest to come later. thanx    

Added On December 16th, 2013

SHARE

Comments

blog comments powered by Disqus

VERSIONS

ADVERTISEMENT