Social distortion Tabs

Under My Thumb

3 versions

TAB

            Under My Thumb Tab by Social Distortion


ok this is very cliche', but this IS my first time submiting a TAB, so please bare with
Im positive these tabs are over 95% accurate. Like all Social Distortion tabs, this one
1/2 step down. all flats
h=hammer on
p=pull off
/=slide up
\=slide down
~=ring
.=to seperate double digit frets


Intro
E----------00---------------------------------------------------|
B----------00---------------------------------------------------|
G----------00-777777--------------------------------------------|
D-44444-22222-777777-----0--------------------------------------|
A-44444-22222-555555--0h2--0h2p0--(last note should be your F#)-|
E-22222-00000---------------------------------------------------|

strum as manytimes as you need during the verse and chorus, the lyrics should help give
who have difficulty some guidance...

Verse
    F#5    Em      D5
E----------------------|
B----------------------|
G------------------7---|
D----4------2------7---|
A----4------2------5---|
E----2------0----------|
...thumb...girl...once... 1st verse
...Thumb...girl..fucked...
...thumb...squirmy..just...2nd
...thumb...girl...just...
...thumb..siamese..cat...3rd
...thumb..sweetest..pet...
...thumb..eyes...kept...4th
...thumb...I.....still...

Chorus
E-------------------------------------------------------|
B-------------------------------------------------------|
G--------------7----4--------------------7--------------|
D----77777777--7----4-------4-----2------7--------7-----|
A----77777777--5----2-------4-----2------5--------7-----|
E----55555555---------------2-----0---------------5-----|
..to me.......way...spoken..me...come...under...thumb 1st chorus
..to me.......diff..clothes.me...come...under...thumb 2nd
..to me.......way...what....me...come...under...thumb 3rd
..to me.......way...tell....me...come...under...thumb 4th

Solo
E----------------------------------------------------------------------------|
B----------------------------------------------------------------------------|
G--44444h5p4-44\2222--/99976h777-4h6-4h6-4~---11.11.11\9999\7777\666--6h7776-|
D----------------------------------------------------------------------------|
A----------------------------------------------------------------------------|
E----------------------------------------------------------------------------|

            ending #1   or   ending #2
----------|-----------------------|---------------------------|
----------|-----------------------|---------------------------|
-44h642h4-|/6676444h64------------|-/6676444h64-4\2222222-----|
----------|------------6/77777777-|------------6--------------|
----------|-----------------------|---------------------------|
----------|-----------------------|---------------------------|

order
into
verse
chorus
verse
chorus
verse
chorus
solo
verse
chorus    

Added On December 12th, 2013

SHARE

Comments

blog comments powered by Disqus

VERSIONS

ADVERTISEMENT