Soda Stereo Tabs

De Musica Ligera

11 versions

TAB

            De Musica Ligera Tab by Soda Stereo


SODA STEREO
De Musica Ligera

Gabriel Zambrano

Esta cancion esta muy facil.
Usa cuatro acordes que se repiten por toda la cancion.

Acordes

    Sim (Bm)         Sol (G)        Re (D)          La (A)
e|----2---------------3---------------2--------------0------------|
B|----3---------------3---------------3--------------2------------|
G|----4---------------0---------------2--------------2------------|
D|----4---------------0---------------0--------------2------------|
A|----2---------------2---------------x--------------0------------| 
E|----2---------------3---------------x--------------x------------|

--VERSO #1--
Ella durmió al calor de las masas

Y yo desperté queriendo soñarla
                  G  D                    G  D
Algún tiempo atrás    pensé en escribirle
                 G  D                    G  D A
Que nunca sorteé     Las trampas del amor

--CORO--

Bm          G  D 
De aquel amor

A         Bm    G  D  A
De música ligera

Bm           G  D   
Nada nos libra

A         Bm   G  D  A
Nada mas queda


Luego toca este solo...       (Vibrato= ~)
e|------------------------------------------------------------------|
B|------------------------------------------------------------------|
G|------------------------------------------------------------------|
D|------------------------------------------------------------------|
A|--2--2--4--5~------4--5--4--2--------2~------0--2--0--------------| 
E|------------------------------5--2~------------------0--2--2--0---|

e|------------------------------------------------------------------|
B|------------------------------------------------------------------|
G|------------------------------------------------------------------|
D|----------------------2--4----------------------------------------|
A|--2--4--5~------4--5--------5--4--2~------------------------------| 
E|------------------------------------------------------------------|

             G D                 G D
No le enviaré    cenizas de rosas
                 G D                G D A
Ni pienso evitar     un roce secreto

--CORO--

Toquen estos acordes: Sim, G, D, y A
Esto sigue de en toda la cancion hasta que se acabe.    

Added On December 12th, 2013

SHARE

Comments

blog comments powered by Disqus