Spineshank Tabs

Violent Mood Swings

4 versions

TAB

            Violent Mood Swings Tab by Spineshank


ok this is my first tab...it should be pretty close to how they play it...

Intro
-----------------------------------------------------------------------
-----------------------------------------------------------------------
-----------------------------------------------------------------------
--7--7--7--7--7-10-10-10--7--7--7--7--7-10-10-10--7--7--7--7-10-10-10--
--5--5--5--5--5--8--8--8--5--5--5--5--5--8--8--8--5--5--5--5--8--8--8--

---------------------------------
---------------------------------
---------------------------------
--12--12--12--12--12--12--12--12-
--10--10--10--10--10--10--10--10-
---------------------------------

Verse Riff
--------------------------------------------------------------------------
--------------------------------------------------------------------------
--------------------------------------------------------------------------
--------------------------------------------------------------------------
--0--------------3--3--3--0--------------3--3--3--0--------------3--3--3--
--0--0--0--0--0--3--3--3--0--0--0--0--0--3--3--3--0--0--0--0--0--3--3--3--

-----------------------------
-----------------------------
-----------------------------
-----------------------------
--5--5--5--5--5--5--5--5-----
--5--5--5--5--5--5--5--5-----

TRANSITION 1
-----------------------------------------------------------------------------
---------------------5-5-5----5-5-5----5-5-5----5-5-5----5-5-5----5-5---5-5--
---------------------4-4-4----4-4-4----4-4-4----4-4-4----4-4-4----4-4---4-4--
---2--2--2--2--2--2--2-2-2----2-2-2----2-2-2----2-2-2----2-2-2----2-2---2-2--
---2--2--2--2--2--2--2-2-2----2-2-2----2-2-2----2-2-2----2-2-2----2-2---2-2--
---2--2--2--2--2--2--2-2-2----2-2-2----2-2-2----2-2-2----2-2-2----2-2---2-2--

CHORUS
-----------------------------------------------------------------------------
-----------------------------------------------------------------------------
-----------------------------------------------------------------------------
---7-7-7-7-7-7-7-7--3-3-3-3-3-3-3-3--5-5-5-5-5-5-5-5--5-5-5-5-5-5-5-5--------
---5-5-5-5-5-5-5-5--1-1-1-1-1-1-1-1--3-3-3-3-3-3-3-3--5-5-5-5-5-5-5-5--------
------------------------------------------------------5-5-5-5-5-5-5-5--------

TRANSITION 2
-------------------------------------------------------------------
--------------10-10-10--10-10-10--10-10-10--10-10-10--10-10--10-10-
---------------9--9--9---9--9--9---9--9--9---9--9--9---9--9---9--9-
--7-7-7-7-7-7--7--7--7---7--7--7---7--7--7---7--7--7---7--7---7--7-
--7-7-7-7-7-7--7--7--7---7--7--7---7--7--7---7--7--7---7--7---7--7-
--7-7-7-7-7-7--7--7--7---7--7--7---7--7--7---7--7--7---7--7---7--7-

BRIDGE 
-------------------------------------------------------------
-------------------------------------------------------------
-------------------------------------------------------------
-----------------------------------------------------------3-
-----------------------------------------------------------3-
--0-0--0-3-0-1-0--3-1-0-1-3-3-3----0-0--0-3-0-1-0--3-1-0-1-3-
*do the same part with chords but mute the stops

BUILDUP TO LAST CHORUS (you will never see)
----------------------------------------------------------------------
----------------------------------------------------------------------
----------------------------------------------------------------------
-------------------------------------------------------7-10-7-10-7-10-
-------------------------------------------------------5-8--5--8-5--8-
--0--0--0---3--3--3---0--0--0---3--3--3---0--0---3--3-----------------

--------------------------------------------------------------
--------------------------------------------------------------
--7-10--7-10--7-10--------------------------------------------
-----------------------------------------------3--------------
--5--8--5--8--5--8-----------------------------3----------3-3-
---------------------0-0-0-0-0-0--0-0-0-0-0-0--3--3-1-0-1-3-3-
                                                 (---MUTED---)  

o.k. if you guys want more tabs from Spineshank go to www.spineshank.com and they
will give you the tabs and lyrics...hope you guys enjoy...    

Added On December 12th, 2013

SHARE

Comments

blog comments powered by Disqus

VERSIONS

ADVERTISEMENT