Spoon Tabs

Advance Cassette

1 versions

TAB

            This isn't perfect but heres a how it goes. The youtube video helped tremendously.
              
             
               VERSE 1

e|----------------------------------|
B|----------------------------------|
G|----------------------------------|
D|----------------------------------|
A|-----6-------6-------6---7---6----|
E|-7-7---7-6-6---6-4-4---4---4---4--|
  
Getting caught's made me think it over and it told me

e|----------------------------------|
B|----------------------------------|
G|----------------------------------|
D|----------------------------------|
A|-9---12---11---4------------------|
E|---0----0----0---0----------------|
  
That you're never coming back here again

e|----------------------------------|
B|----------------------------------|
G|----------------------------------|
D|----------------------------------|
A|-----6-------6-------6---7---6----|
E|-7-7---7-6-6---6-4-4---4---4---4--|
  
We've been doing things the same way for so long

e|--------------------------------------------------|
B|--------------------------------------------------|
G|--------------------------------------------------|
D|--------------------------------------------------|
A|-9-9---9-9---9-----6-------6---9---12---11---4----|
E|-----0-----0---7-7---7-7-7---7---0----0----0---0--|
 
That it took me aback I dont think that Ill ever hear that sad song again

                CHORUS

e|-----------------------------------------------------------|
B|-----------------------------------------------------------|
G|-----------------------------------------------------------|
D|---------9-------------------------------------------------|
A|-----6-----6---6-------6-------6-------6---7---6-----------|
E|-7-7---7-----7-----7-7---7-6-6---6-4-4---4---4---4---------|

Dont tell me I've lost you
No dont say that I've lost you
e|-----------------------------------------------------------|
B|-----------------------------------------------------------|
G|-----------------------------------------------------------|
D|-----------------------------------------------------------|
A|-9---12---11---4-------------------------------------------|
E|---0----0----0---0-----------------------------------------|

Advance cassette. I just cant believe it
                 REPEAT

                 INSTRUMENTAL INTERLUDE

e|--------------------------------------------------------------------|
B|--------------------------------------------------------------------|
G|--------------------------------------------------------------------|
D|---------9------------9---8---------6---5---------------------------|
A|-----6-----6---6----6---------9---6-----6---------------------------|
E|-7-7---7-----7----7-----7---7---4-----4-4---------------------------|

e|--------------------------------------------------------------------|
B|--------------------------------------------------------------------|
G|--------------------------------------------------------------------|
D|-4/6-6-6-6-4-4-4-4-----4-------4-------2-------2-------0-------0----|
A|-4/6-6-6-6-4-4-4-4-4-4-4-4-4-4-4-4-2-2-2-2-2-2-2-2-1-1-1-1-1-1-1-1--|
E|-------------------2-2-2-2/3-3-3-3-0-0---0-0-0---0-0-0---0-0-0---0--|

                 VERSE 2
You'll know by the look on their faces when they pass by you
You've been dropped off on the Texas highway
I've been out here for so long that I'm not sure
How you wound me so tight
I'm afraid I wont ever hear that sad song again

                 CHORUS

               INSTRUMENTAL INTERLUDE

         END SONG ON 
e|----------------------|
B|----------------------|
G|----------------------|
D|----------------------|
A|----------------------|
E|--------7-------------|    

Added On December 16th, 2013

SHARE

Comments

blog comments powered by Disqus

ADVERTISEMENT