Starting Line Tabs

Island

3 versions

TAB

            Song: Island
Artist: The Starting Line
Album: Direction

This is just one guitar part, Matt's, i will tab the other, Mike's, later

Tuning: Drop D/Half step down


Intro
Eb|-----|
Bb|-----|
Gb|-----|
Db|-0---| Six Times
Ab|-0-x3|
Db|-0---|


Verse
Eb|----------------------|
Bb|----------------------|
Gb|----------------------|
Db|-5------55/7---7--0---|
Ab|-5-x3---55/7---7--0-x3|
Db|-5------55/7---7--0---|
    Lets..           Aside...


Eb|-----|
Bb|-----|
Gb|-----|
Db|-0---| Five Times
Ab|-0-x3|
Db|-0---|
  

Verse
Eb|----------------------|
Bb|----------------------|
Gb|----------------------|
Db|-5------55/7---7--0---|
Ab|-5-x3---55/7---7--0-x3|
Db|-5------55/7---7--0---|
    With...          Right...
 

                      Pre-Chorus
Eb|----------------| |----------|
Bb|----------------| |----------| Not sure if this is a Natural 
Gb|----------------| |----------| Harmonic or not but just treat it
Db|-0-------5~/----| |--x4--| like it is on the tenth fret
Ab|-0-x3----5~/-x2-| |----------|
Db|-0-------5~/----| |----------|


Chorus
Eb|----------------------------|
Bb|----------------------------|
Gb|----------------------------| Two Times
Db|-9------0------5-------7----|    x2
Ab|-9-x8---0-x8---5-x12---7-x4-|
Db|-9------0------5-------7----|
    Just...
    Waiting


Eb|-----|
Bb|-----|
Gb|-----|
Db|-0---| Four Times
Ab|-0-x3|
Db|-0---|


Verse
Eb|----------------------|
Bb|----------------------|
Gb|----------------------|
Db|-5------55/7---7--0---|
Ab|-5-x3---55/7---7--0-x3|
Db|-5------55/7---7--0---|
    But...           Fine...


                      Pre Chorus
Eb|----------------| |----------|
Bb|----------------| |----------| Not sure if this is a Natural 
Gb|----------------| |----------| Harmonic or not but just treat it
Db|-0-------5~/----| |--x4--| like it is on the tenth fret
Ab|-0-x3----5~/-x2-| |----------|
Db|-0-------5~/----| |----------|


Chorus
Eb|----------------------------|
Bb|----------------------------|
Gb|----------------------------| Four Times
Db|-9------0------5-------7----|     x4
Ab|-9-x8---0-x8---5-x12---7-x4-|
Db|-9------0------5-------7----|
    Just...
    Waiting...

 
Long Rest


Bridge
Eb|-0~------------------------000---|
Bb|-0~------------------------000---|
Gb|-0~------------------------000---|
Db|-5~------------------------555---|
Ab|-5~------------------------555---|
Db|-5~------------------------555---|
    And if you like...    You are...


Eb|-0~----------------------0~----------------000---|
Bb|-0~----------------------0~----------------000---|
Gb|-0~----------------------0~----------------000---|
Db|-5~----------------------5~----------------555---|
Ab|-5~----------------------5~----------------555---|
Db|-5~----------------------5~----------------555---|
    And if you like...      Time...           Finer...


Eb|-------------------------------------------| |----------|
Bb|-0~----------------------0~----------------| |----------|
Gb|-0~----------------------0~----------------| |----------|
Db|-5~----------------------5~----------------| |--x4--|
Ab|-5~----------------------5~----------------| |----------|
Db|-5~----------------------5~----------------| |----------|
      If We survive...      Alive...          You...


Chorus/Outro
Eb|----------------------------|
Bb|----------------------------|
Gb|----------------------------| Six Times
Db|-9------0------5-------7----|    x6
Ab|-9-x8---0-x8---5-x12---7-x4-| Fade Out
Db|-9------0------5-------7----|
    Just...
    Waiting...    

Added On December 16th, 2013

SHARE

Comments

blog comments powered by Disqus

VERSIONS

ADVERTISEMENT