Stone Sour Tabs

Come Whatever May

2 versions

TAB

            Come Whatever May Tab by Stone Sour


Tab Key

*= palm mute
/= slide
^= bend up
'= harmonic
"= tremolo picking
`= pinch harmonic
~= vibrato

intro
[-------------------------------------------------] x2
[-------------------------------------------------]
[-------------------------------------------------]
[-------------------------------------------------]
[-----------5-----------3-----------5-------------]
[-3-0-0-5-3---3-0-0-5-3---3-0-0-5-3---3-0-0-0-5-5-]
                                          * *
[-------------------------------------------------]
[-------------------------------------------------]
[-------------------------------------------------]
[-3-0-0-5-3---3-0-0-5-3---3-0-0-5-3---3-0-0-0-5-5-]
[-3-0-0-5-3-5-3-0-0-5-3-3-3-0-0-5-3-5-3-0-0-0-5-5-]
[-3-0-0-5-3---3-0-0-5-3---3-0-0-5-3---3-0-0-0-5-5-]
                                          * *

[-------------------------------------------------------]
[-------------------------------------------------------]
[-------------------------------------------------------]
[-------------------------------------------------------]
[-------------------------------------------------------]
[-00-0--30-0--00-0--30-00-55-00-0--30-0--00-0--30-00-55-]
                       **                         **

(Guitar 1) Rythem
[---------------------------------]x2
[---------------------------------]
[---------------------------------]
[-30-0-0-030-0-0-030-0-0-030-0-0-0]
[-30-0-0-030-0-0-030-0-0-030-0-0-0]
[-30-0-0-030-0-0-030-0-0-030-0-0-0]


(Guitar 2)
[--------------------------------------------------------------------] x2
[--------------------------------------------------------------------]
[-5/(7)-7-7-7/(10)/(7)-7-7-7/(5)/(7)-7-7-7/(10)10/(12)12/(10)10/(7)7-]
[-x/(x)-x-x-x/( x)/(x)-x-x-x/(x)/(x)-x-x-x/( x) x/(x ) x/( x) x/(x)x-]
[-3/(5)-5-5-5/( 8)/(5)-5-5-5/(3)/(5)-5-5-5/( 8) 8/(10)10/( 8) 8/(5)5-]
[--------------------------------------------------------------------]

(Chorus)
(HOLD NOTE FOR AWHILE AFTER YOU HIT THE 12TH FRET)
[--------------------------------------------]
[--------------------------------------------]
[--------------------------------------------]
[-5/12-------5/12----------5/12-------5/12---]
[-5/12-------5/12----------5/12-------5/12---]
[-5/12----00-5/12-------00-5/12----00-5/12---]
          **            **         **

(Guitar 1)
[-------------------------------------------------]
[-------------------------------20/9'-------------]
[------------------------------------20/9'--------]
[--12"^^^^^^^^^^^^^^^^^^^10"^^^-------------------]
[-------------------------------------------------]
[------------------------------------------3`~~~~-]


(Guitar 2)
[------------------------------------------------]
[------------------------------------------------]
[------------------------------------------------]
[-3-0-0-5-3---3-0-0-5-3---3-0-0-5-3---3-0-00-5-5-]
[-3-0-0-5-3-5-3-0-0-5-3-3-3-0-0-5-3-5-3-0-00-5-5-]
[-3-0-0-5-3---3-0-0-5-3---3-0-0-5-3---3-0-00-5-5-]
                                          **

[-------------------------------------------------------]
[-------------------------------------------------------]
[-------------------------------------------------------]
[-------------------------------------------------------]
[-------------------------------------------------------]
[-00-0--30-0--00-0--30-00-55-00-0--30-0--00-0--30-00-55-]
                       **                         **
(Guitar 1) Rythem
[---------------------------------]x2
[---------------------------------]
[---------------------------------]
[-30-0-0-030-0-0-030-0-0-030-00-0-]
[-30-0-0-030-0-0-030-0-0-030-00-0-]
[-30-0-0-030-0-0-030-0-0-030-00-0-]

(guitar 2)
[--------------------------------------------------------------------] x2
[--------------------------------------------------------------------]
[-5/(7)-7-7-7/(10)/(7)-7-7-7/(5)/(7)-7-7-7/(10)10/(12)12/(10)10/(7)7-]
[-x/(x)-x-x-x/( x)/(x)-x-x-x/(x)/(x)-x-x-x/( x) x/(x ) x/( x) x/(x)x-]
[-3/(5)-5-5-5/( 8)/(5)-5-5-5/(3)/(5)-5-5-5/( 8) 8/(10)10/( 8) 8/(5)5-]
[--------------------------------------------------------------------]


(Chorus)
[--------------------------------------------]
[--------------------------------------------]
[--------------------------------------------]
[-5/12-------5/12----------5/12-------5/12---]
[-5/12-------5/12----------5/12-------5/12---]
[-5/12----00-5/12-------00-5/12----00-5/12---]
          **            **         **

[--------------------------------------]x2
[--------------------------------------]
[--------------------------------------]
[-5551212129--------555999777----------]
[-5551212129-777797-555999777-777797---]
[-5551212129-777797-555999777-777797---]

           (there 12's and 10's)

                       (SOLO) excuse me if its a bit off its my first solo.

             (Rythem is played 2x)
[-------------------------------------------------]
[-------------------------------------------------]
[-------------------------------------------------]
[-3-0-0-5-3---3-0-0-5-3---3-0-0-5-3---3-0-0-0-5-5-]
[-3-0-0-5-3-5-3-0-0-5-3-3-3-0-0-5-3-5-3-0-0-0-5-5-]
[-3-0-0-5-3---3-0-0-5-3---3-0-0-5-3---3-0-0-0-5-5-]
                                          * *

[--------------------------------------------------------------------------(17s,19s,and 20s)-----------------------------]
[-------------------------------------------------------------------17171719171720171719171720171719171720-19^v17171717--]
[------------------------------------------------------------------------------------------------------------------------]
[-------------------------------19-21-19-21-19-21-19-21-19-21-19-21------------------------------------------------------]
[-19-21-19-21-19-21-19-21-19-21------------------------------------------------------------------------------------------]
[------------------------------------------------------------------------------------------------------------------------]
 (wah vvvvvvvvvvvvvvvvvvvvvvvvvvvvvvvvvvvvvvvvvvvvvvvvvvvvvvvvvvvvvv^^^^^^^^^^^^^^^^^^^^^^^^^^^^^^^^^^^^^^
  (.....tremelo picking....................................................................................    ........

                                      (on this part hit the pic on the 21st fret
                                      the rest of the time)
[-------------------------------------18-20-18-17-15-14-12-10-987654321----]
[-19^v17171717-16^~~~~-18^~~18^~~/16~~-------------------------------------]
[----------------------18^~~18^~~/16~~-------------------------------------]
[--------------------------------------------------------------------------]
[--------------------------------------------------------------------------]
[--------------------------------------------------------------------------]
      ........)

[--------------------------------------------------------------]x2
[-------------5'5'-------------5'5'-------------5'5'-----------]
[--------------------------------------------------------------]
[---------5'5'-------------5'5'-------------5'5'---------------]
[-----5'5'-------------5'5'-------------5'5'-------------------]
[-3-0--------------3-0--------------3-0--------------3-0-00-55-]
                                                         **

(Guitar 1) Rythem
[---------------------------------]x2
[---------------------------------]
[---------------------------------]
[-30-0-0-030-0-0-030-0-0-030-0-0-0]
[-30-0-0-030-0-0-030-0-0-030-0-0-0]
[-30-0-0-030-0-0-030-0-0-030-0-0-0]


(Guitar 2)
[--------------------------------------------------------------------]x2
[--------------------------------------------------------------------]
[-5/(7)-7-7-7/(10)/(7)-7-7-7/(5)/(7)-7-7-7/(10)10/(12)12/(10)10/(7)7-]
[-x/(x)-x-x-x/( x)/(x)-x-x-x/(x)/(x)-x-x-x/( x) x/(x ) x/( x) x/(x)x-]
[-3/(5)-5-5-5/( 8)/(5)-5-5-5/(3)/(5)-5-5-5/( 8) 8/(10)10/( 8) 8/(5)5-]
[--------------------------------------------------------------------]


(Chorus)
[--------------------------------------------]
[--------------------------------------------]
[--------------------------------------------]
[-5/12-------5/12----------5/12-------5/12---]
[-5/12-------5/12----------5/12-------5/12---]
[-5/12----00-5/12-------00-5/12----00-5/12---]
          **            **         **

[--------------------------------------]x2
[--------------------------------------]
[--------------------------------------]
[-5551212129--------555999777----------]
[-5551212129-777797-555999777-777797---]
[-5551212129-777797-555999777-777797---]

            (there 12's and 10's)

(played slower)
[------------------------------------------------------]
[------------------------------------------------------]
[------------------------------------------------------]
[-5512129-777797-55997-777797-5512129-777797-5-9-7-xxx-]
[-5512129-777797-55997-777797-5512129-777797-5-9-7-xxx-]
[-5512129-777797-55997-777797-5512129-777797-5-9-7-xxx-]


[----------------------------------]x2           [----]
[----------------------------------]             [----]
[----------------------------------]             [----]
[-30-0-0-030-0-0-030-0-0-030-00-55-]last time    [-30-]
[-30-0-0-030-0-0-030-0-0-030-00-55-]it ends with [-30-]
[-30-0-0-030-0-0-030-0-0-030-00-55-]             [-30-]
                             **
I think I did pretty good, please rate.-------------------------------------------------------------------------------
			     "Come What (ever) May" solos - Stone Sour
-------------------------------------------------------------------------------

Tabbed by: [travis]
Email: syn_gates_punk14@msn.com

Tuning: B F# B E G# C# (low to high)

This is the tab for the two crazy solos in this song.
Both solos are played by Jim Root.



Key:

h = hammer on
p = pull off
T = Tap
/ \ = slide on
* = harmonic
x = muted string
! = tremelo pick
w = wammy bar
b = bend
.25 = quarter bend
.5 = half step bend
.75 = three fourths bend
1 = whole step bend.
1.5 = one and a half step bend.
() = bent note is returned to normal note, or note is barley heard.



+++++++++++++++++++++++++++++++++++++++++++++++++++++++++++++++++++++++++++++++
Guitar solo 1:

Guitar 1:
                 .25              .5            1            1
C#|---------------------------------------------------------------------------|
G#|---------------------------------------------------------------------------|
E |-7!-----------7b!-------------7b!-----------7b!----------7b!-------(7!)----|
B |---------------------------------------------------------------------------|
F#|---------------------------------------------------------------------------|
B |---------------------------------------------------------------------------|


                                     ******************************************
C#|---------------------------------------------------------------------------------------------------|
G#|---------------------------------------------------------------------------------------------------|
E |-5--7--5\4--5--4/5--7--5\4--5--0--1.9!//2!//2.3!//3!//4!//5!--3!//4!//5!//7!--0h2/-----------------|
B |---------------------------------------------------------------------------------------------------|
F#|---------------------------------------------------------------------------------------------------|
B |------------------------------------------------------------------------------------14p0-14p0-17\--|

End of Guitar solo 1.
+++++++++++++++++++++++++++++++++++++++++++++++++++++++++++++++++++++++++++++++
Guitar solo 2

Guitar 1:
           T           T           T           T           T           T
C#|---------------------------------------------------------------------------|
G#|---------------------------------------------------------------------------|
E |---------------------------------------------------------------------------|
B |-5h/10--17p14p10h14-17p14p10h14-17p14p10h15-19p15p12p15-19p15p12h15-23p15--|
F#|---------------------------------------------------------------------------|
B |---------------------------------------------------------------------------|


C#|-12h15p12----13h17p13----12h15p12----13h17p13----12h15p12----13h17-12h/13--15h/17p\15p13p12h13p12----|
G#|----------14----------15----------14----------13----------14--------------------------------------15-|
E |-----------------------------------------------------------------------------------------------------|
B |-----------------------------------------------------------------------------------------------------|
F#|-----------------------------------------------------------------------------------------------------|
B |-----------------------------------------------------------------------------------------------------|

                                                                               1        1.5
C#|-12-15h/17p\15p13p12h13p12----12-15h/17p\15p13p12h13p12-----12----------------------------------|
G#|---------------------------15----------------------------------15p13p12---15b----15--15b~~~~~~~-|
E |------------------------------------------------------------------------------------------------|
B |------------------------------------------------------------------------------------------------|
F#|------------------------------------------------------------------------------------------------|
B |------------------------------------------------------------------------------------------------|


The .5 on top is for the 19 on the G# string. The 1 is for the 19 on the E string.
            .5                       .5           .5          .5
             1                        1            1           1
C#|------------------------------------------------------------------------|
G#|-x--19--19b--(19)--19-----19-19--19b--(19)----19b--(19)\--12b--(12)~~~~-|
E |-x--19--19b--(19)--19-----19-19--19b--(19)----19b--(19)\--12b--(12)~~~~-|
B |------------------------------------------------------------------------|
F#|------------------------------------------------------------------------|
B |------------------------------------------------------------------------|

                T     T           T     T           T     T           T     T           T     T   
C#|-------15-17-22p17-22p17p15p12-22p17-22p17p15p12-22p17-22p17p15p12-20p17-20p17p15p12-20p17-20p17p15p12-|
G#|-15/17-------------------------------------------------------------------------------------------------|
E |-------------------------------------------------------------------------------------------------------|
B |-------------------------------------------------------------------------------------------------------|
F#|-------------------------------------------------------------------------------------------------------|
B |-------------------------------------------------------------------------------------------------------|

    T     T            T     T     T     T     T     T     T     T     T     T     T     T     T     T     T
C#|-20p17-20p17p15p12--18p15-18p15-17p15-17p14-17p14-17p14-17p13-16p13-16p13-16p12-15p12-15p11-14p11-14p10-13\-|
G#|------------------------------------------------------------------------------------------------------------|
E |------------------------------------------------------------------------------------------------------------|
B |------------------------------------------------------------------------------------------------------------|
F#|------------------------------------------------------------------------------------------------------------|
B |------------------------------------------------------------------------------------------------------------|

   For this part, push down the wammy bar after picking this note, and push it to slack.
C#|-------/-|
G#|------/--|
E |-----/---|
B |----/----|
F#|-0w/-----|
B |---------|

Comment it and rate it.
[travis]    

Added On December 12th, 2013

SHARE

Comments

blog comments powered by Disqus

VERSIONS

ADVERTISEMENT