Stone Sour Tabs

Wicked Game

2 versions

TAB

            -------------------------------------------------------------------------------
			     Wicked Game - Stone SOur
-------------------------------------------------------------------------------
Tabbed by: Bryan Bustamante of California
Email:bryanbustamante87@hotmail.com
I have this song on myspace up for download if you want it.
http://www.myspace.com/munky875821417
This is just an overview of the song
I know there is more to it but I didn't want to tab it all out.
Tuning: 1/2 Step Down (Eb,Ab,Db,Gb,Bb,Eb,)

Intro/Chorus

e|--2-2-2-2--2---2-2-2--0-0-0-0--------------------------|
B|--3-3-3-3--2-3-2-2-2--0-0-0-0--------------------------|
G|--4-4-4-4--2---2-2-2--1-1-1-1--------------------------|
D|--4-4-4-4--2---2-2-2--2-2-2-2--------------------------|
A|--2-2-2-2--2---2-2-2--2-2-2-2--------------------------|
E|----------------------0-0-0-0--------------------------|

Second Guitar in Intro
e|-------------------------------------------------------|
B|---5h7--(7)---7--5--3-5-3--2-2h3-----------------------|
G|-------------------------------------------------------|
D|-------------------------------------------------------|
A|-------------------------------------------------------|
E|-------------------------------------------------------|

Verse 1

e|---2--2------0-0-0-0-0-0-------------------------------|
B|---3--2--3p2-0-0-0-0-0-0-------------------------------|
G|---4--2------1-1-1-1-1-1-------------------------------|
D|---4--2------2-2-2-2-2-2-------------------------------|
A|---2--2------2-2-2-2-2-2-------------------------------|
E|-------------0-0-0-0-0-0-------------------------------|

Verse 2
e|--2--2------0------------------------------------------|
B|--3--2--3p2-1------------------------------------------|
G|--4--2------2------------------------------------------|
D|--4--2------2------------------------------------------|
A|--2--2------0------------------------------------------|
E|-------------------------------------------------------|

Outro Guitar One

e|--2-2-2-2--2---2-2-2--0-0-0-0--------------------------|
B|--3-3-3-3--2-3-2-2-2--0-0-0-0--------------------------|
G|--4-4-4-4--2---2-2-2--1-1-1-1--------------------------|
D|--4-4-4-4--2---2-2-2--2-2-2-2--------------------------|
A|--2-2-2-2--2---2-2-2--2-2-2-2--------------------------|
E|----------------------0-0-0-0--------------------------|


Outro Guitar Two

e|---2------2-------2-------2-------0--------0-----------|
B|-----3------3-------2-------2-------0--------0---------|
G|-------4------4-------2-------2-------1--------1-------|
D|---------4------4-------2-------2-------2--------2-----|
A|-------------------------------------------------------|
E|-------------------------------------------------------|

Finish 
e|---2---2---0^------------------------------------------|
B|---3---2---0^------------------------------------------|
G|---4---2---1^------------------------------------------|
D|---4---2---2^------------------------------------------|
A|---2---2---2^------------------------------------------|
E|-----------0^------------------------------------------|

Hit first chord hard. Second softly. Then rake up last chord.

| /  slide up
| \  slide down
| h  hammer-on
| p  pull-off
| ~  vibrato
| +  harmonic
| x  Mute note
===============================================================================    

Added On December 16th, 2013

SHARE

Comments

blog comments powered by Disqus

VERSIONS

ADVERTISEMENT