Sum 41 Tabs

Blood In My Eyes

1 versions

TAB

            Tabbed by: GuitarVillain08
Email: bizzyd53@yahoo.com

Tuning: Standard

0:00 - Intro - Clean (4x)
                                                           End on:
|-------0-------0-------0-------0-----0-----0-----0-----0|---0~---|
|-------0-------0-------0-------0-----0-----0-----0-----0|---0~---|
|-12-12---12-12---11-11---11-11---8-8---8-8---9-9---9-9--|---9~---|
|--------------------------------------------------------|--------|
|--------------------------------------------------------|--------|
|--------------------------------------------------------|--------|
Pick: Down, down, up


0:24
|-----------------------------------------------------------------------|
|-----------------------------------------------------------------------|
|-999-9--9-999-9--9-999-9-9--------999-9-99-99-9------------------------|
|-xxx-x--x-xxx-x--x-xxx-x-x--------xxx-x-xx-xx-x------------------------|
|-777-7--7-777-7--7-777-7-7--9-10--777-7-77-77-7----------4/5/4---------|
|----------------------------7-8-----------------7008007002/3/2---------|

|-----------------------------------------------------------------------|
|-----------------------------------------------------------------------|
|-999-9--9-999-9--9-999-9-9--------999-9-99-99-9------------------------|
|-xxx-x--x-xxx-x--x-xxx-x-x--------xxx-x-xx-xx-x------------------------|
|-777-7--7-777-7--7-777-7-7--9-10--777-7-77-77-7------------------------|
|----------------------------7-8-----------------7008007002-------------|


0:37 - Main Riff (2x)                                  
|----------------------------------------------------------------------------|------------------|
|----------------------------------------------------------------------------|------------------|
|----------------------------------------------------------------------------|------------------|
|----------------------------------------------------------------------------|------------------|
|----------------------4/5---4/5------------------------4/5---4/5------------|-2---2---2---2---2|
|-0-0-0700800700500300-2/3-0-2/3------0-07008007005003002/3-0-2/3------------|-0---0---0---0---0|


0:54 - Verse
|----0------0-------------------------------------(0)-----------------|
|----8------8------0------0-------(0)--------------3------------------|
|---9-9----9-9-----8------8--------9--------4-----4-4-----------------|
|--9---9--9---9---9-9----9-9-----10-10-----5-5---4---4----------------|
|-7------7-------9---9--9---9--10-----10--5---5-2---------------------|
|---------------7------7------8----------3----------------------------|



1:06 - Pre-Chorus
1st guitar          2nd guitar
|-----------------|---------------------------------------------------------|
|-----------------|---------------------------------------------------------|
|-9~------/5~-----|--9-99999-99999-99999-99-5-55555-55555-55555---------2~--|
|-9~--9---/5~-----|--x-xxxxx-xxxxx-xxxxx-xx-x-xxxxx-xxxxx-xxxxx---------2~--|
|-7~--7---/3~--5--|--7-77777-77777-77777-77-3-33333-33333-33333---------0~--|
|--------------3--|---------------------------------------------------------|
Plays during 2nd
    guitar


1:21 - Chorus (2x)
|-------------------------------------------------------------------------------------------------|
|-------------------------------------------------------------------------------------------------|
|-------------------------------------------------------------------------------------4-4-4-7-7-7-|
|-------------------------7-7-7-7-7-7-------------------------------------7-7-7-7-7-7-x-x-x-x-x-x-|
|-2-2-2-2-2-2-5-5-5-5-5-5-5-5-5-5-5-5-7-7-7-7-7-7-2-2-2-2-2-2-5-5-5-5-5-5-5-5-5-5-5-5-2-2-2-5-5-5-|
|-0-0-0-0-0-0-3-3-3-3-3-3-------------5-5-5-5-5-5-0-0-0-0-0-0-3-3-3-3-3-3-------------------------|


Main Riff (2x)
Verse (1x)


Pre-Chorus (with Verse playing in background) - 1x


2:25 - Chorus 
|-------------------------------------------------------------------------------------------------|
|-------------------------------------------------------------------------------------------------|
|-------------------------------------------------------------------------------------4-4-4-7-7-7-|
|-------------------------7-7-7-7-7-7-------------------------------------7-7-7-7-7-7-x-x-x-x-x-x-|
|-2-2-2-2-2-2-5-5-5-5-5-5-5-5-5-5-5-5-7-7-7-7-7-7-2-2-2-2-2-2-5-5-5-5-5-5-5-5-5-5-5-5-2-2-2-5-5-5-|
|-0-0-0-0-0-0-3-3-3-3-3-3-------------5-5-5-5-5-5-0-0-0-0-0-0-3-3-3-3-3-3-------------------------|

|-------------------------------------------------------------------------------------------------|
|-------------------------------------------------------------------------------------------------|
|-------------------------------------4-4-4-7-7-7-------------------------------------4-4-4-7-7-7-|
|-------------------------7-7-7-7-7-7-x-x-x-x-x-x-------------------------7-7-7-7-7-7-x-x-x-x-x-x-|
|-2-2-2-2-2-2-5-5-5-5-5-5-5-5-5-5-5-5-2-2-2-5-5-5-2-2-2-2-2-2-5-5-5-5-5-5-5-5-5-5-5-5-2-2-2-5-5-5-|
|-0-0-0-0-0-0-3-3-3-3-3-3-------------------------0-0-0-0-0-0-3-3-3-3-3-3-------------------------|

End on:
|------|
|------|
|------|
|--2~--|
|--2~--|
|--0~--|


Intro - 1x


3:11 to 3:26 - Bridge - Palm Muted - 
|---------------------------------------------------------------------|
|---------------------------------------------------------------------|
|---------------------------------------------------------------------|
|--------4------------------------------------------------------------|
|-7-6-7----------------2-----2---7-6-REPEAT---------------------------|
|----------3-0-2-3-0-2---0-2---0--------------------------------------|


3:17 - Bridge - Rhythm Guitar - 1st Part
|---------------------------------------------------------------|
|---------------------------------------------------------------|
|---9-----8----11----9----------9-----8----11--12---------------|
|---x-----x----x-----x----------x-----x----x----x---------------|
|---7-----6----9-----7----------7-----6----9---10---------------|
|---------------------------------------------------------------|


3:22 - Bridge - Rhythm Guitar
|----------------------------------------------------------------------|
|----------------------------------------------------------------------|
|----------------------------------------------------------------------|
|----------------------------------------------------------------------|
|----------------------------------------------------------------------|
|-000--333--222--333--5555---------------------------------------------|

Also 3:22 - Bridge - Guitar way in the background
|----------------------------------------------------------------------|
|----------------------------------------------------------------------|
|----------------------------------------------------------------------|
|----------------------------------------------------------------------|
|-7-7--6-6--9-9-7-7----7-7--6-6--9-9--10-10----------------------------|
|----------------------------------------------------------------------|


3:27 - Bridge - Last Part
|--------------------------------------------------------------------------------|
|--------------------------------------------------------------------------------|
|--------------------------------------------------------------------------------|
|-2225554445557777--222555444555xxxx--22255544455577777--22255542xxxxxxx---2~----|
|-2225554445557777--222555444555xxxx--22255544455577777--22255542xxxxxxx---2~----|
|-0003332223335555--000333222333xxxx--00033322233355555--00033320xxxxxxx---0~----|


3:43 - Chorus - 2x
|-------------------------------------------------------------------------------------------------|
|-------------------------------------------------------------------------------------------------|
|-------------------------------------4-4-4-7-7-7-------------------------------------4-4-4-7-7-7-|
|-------------------------7-7-7-7-7-7-x-x-x-x-x-x-------------------------7-7-7-7-7-7-x-x-x-x-x-x-|
|-2-2-2-2-2-2-5-5-5-5-5-5-5-5-5-5-5-5-2-2-2-5-5-5-2-2-2-2-2-2-5-5-5-5-5-5-5-5-5-5-5-5-2-2-2-5-5-5-|
|-0-0-0-0-0-0-3-3-3-3-3-3-------------------------0-0-0-0-0-0-3-3-3-3-3-3-------------------------|    

Added On December 16th, 2013

SHARE

Comments

blog comments powered by Disqus

ADVERTISEMENT