System Of A Down Tabs

Needles

8 versions

TAB

            Song: Needles
Artist: System of a Down
Album: Toxcity

Tuning: CGCFAD

This is my First Tab, So if theres any mistakes tell me, Mattside92@aol.com


Intro:
D|-6p5p0-6p5p0-6p5p0-6p5p0--6p5p0-6p5p0-6p5p0-6p5p0-|
A|--------------------------------------------------|
F|--------------------------------------------------|
C|--------------------------------------------------|
G|--------------------------------------------------|
C|--------------------------------------------------|

Bridge:
D|----------------------------------------------------------|
A|----------------------------------------------------------|
F|----------------------------------------------------------|
C|----------------------------------------------------------|
G|----5-6-5-6-5-6-5-6--5-6-5-6-5-6-5-6-5--5-6-5-6-5-6-5-6-5-|
C|----5-6-5-6-5-6-5-6--5-6-5-6-5-6-5-6-5--5-6-5-6-5-6-5-6-5-|


Bridge: (Cont)
D|---------------------------------------------------|
A|---------------------------------------------------|
F|---------------------------------------------------|
C|---------------------------------------------------|
G|---------------------------------------------------|
C|-6p5p0-6p5p0-6p5p0-6p5p0--6p5p0-6p5p0-6p5p0-6p5p0--|


Verse:
D|------------------------------------------------------|
A|------------------------------------------------------|
F|------------------------------------------------------|
C|--5--6--5--6---5--6--5--6---5--6--5--6---5--6--5--6---|
G|--5--6--5--6---5--6--5--6---5--6--5--6---5--6--5--6---|
C|--5--6--5--6---5--6--5--6---5--6--5--6---5--6--5--6---|


Bridge:
D|---------------------------------------------------|
A|---------------------------------------------------|
F|---------------------------------------------------|
C|---------------------------------------------------|
G|---------------------------------------------------|
C|-6p5p0-6p5p0-6p5p0-6p5p0--6p5p0-6p5p0-6p5p0-6p5p0--|


Verse:
D|------------------------------------------------------|
A|------------------------------------------------------|
F|------------------------------------------------------|
C|--5--6--5--6---5--6--5--6---5--6--5--6---5--6--5--6---|
G|--5--6--5--6---5--6--5--6---5--6--5--6---5--6--5--6---|
C|--5--6--5--6---5--6--5--6---5--6--5--6---5--6--5--6---|


Pre Chorus:
D|---------------|--------------|-----------------|------------------|
A|---------------|--------------|-----------------|------------------|
F|---------------|--------------|-----------------|----------------- |
C|---------------|--------------|-----------------|------------------|
G|--5------------|-1------------|-7\------7\------|-7\------7\-------|
C|--5------/12\--|-1------/12\--|-7\------7\------|-7\------7\-------|


Chorus:
D|-------------------|--------------------|------------------|
A|-------------------|--------------------|------------------|
F|-------------------|--------------------|------------------|
C|-------------------|--------------------|------------------|
G|--5-5-3-3-6-6-6-5--|-5-5-3-3-6-6-6-5----|-5-5-3-3-6-6-6-5--|
C|--5-5-3-3-6-6-6-5--|-5-5-3-3-6-6-6-5----|-5-5-3-3-6-6-6-5--|


D|------------------------------------------------------|
A|------------------------------------------------------|
F|------------------------------------------------------|
C|--5--6--5--6---5--6--5--6---5--6--5--6---5--6--5--6---|
G|--5--6--5--6---5--6--5--6---5--6--5--6---5--6--5--6---|
C|--5--6--5--6---5--6--5--6---5--6--5--6---5--6--5--6---|



D|---------------------------------------------------|
A|---------------------------------------------------|
F|---------------------------------------------------|
C|---------------------------------------------------|
G|---------------------------------------------------|
C|-6p5p0-6p5p0-6p5p0-6p5p0--6p5p0-6p5p0-6p5p0-6p5p0--|


Solo:
D|-------------------------|-------------------------|
A|---4p3---4p3-------------|---3p2---3p2-------------|
F|---------------0-----0---|---------------0-----0---|
C|-5-----5---------4-----4-|-4-----4---------4-----4-|
G|-------------6-----6-----|-------------5-----5-----|
C|-------------------------|-------------------------|


Bridge:
D|----------------------------------------------------------|
A|----------------------------------------------------------|
F|----------------------------------------------------------|
C|----------------------------------------------------------|
G|----5-6-5-6-5-6-5-6--5-6-5-6-5-6-5-6-5--5-6-5-6-5-6-5-6-5-|
C|----5-6-5-6-5-6-5-6--5-6-5-6-5-6-5-6-5--5-6-5-6-5-6-5-6-5-|


Bridge:
D|---------------------------------------------------|
A|---------------------------------------------------|
F|---------------------------------------------------|
C|---------------------------------------------------|
G|---------------------------------------------------|
C|-6p5p0-6p5p0-6p5p0-6p5p0--6p5p0-6p5p0-6p5p0-6p5p0--|


Pre Chorus:
D|---------------|--------------|-----------------|------------------|
A|---------------|--------------|-----------------|------------------|
F|---------------|--------------|-----------------|----------------- |
C|---------------|--------------|-----------------|------------------|
G|--5------------|-1------------|-7\------7\------|-7\------7\-------|
C|--5------/12\--|-1------/12\--|-7\------7\------|-7\------7\-------|


Chorus:
D|-------------------|--------------------|------------------|
A|-------------------|--------------------|------------------|
F|-------------------|--------------------|------------------|
C|-------------------|--------------------|------------------|
G|--5-5-3-3-6-6-6-5--|-5-5-3-3-6-6-6-5----|-5-5-3-3-6-6-6-5--|
C|--5-5-3-3-6-6-6-5--|-5-5-3-3-6-6-6-5----|-5-5-3-3-6-6-6-5--|    

Added On December 16th, 2013

SHARE

Comments

blog comments powered by Disqus