T Mills Tabs

Stupid Boy

1 versions

TAB

            -------------------------------------------------------------------------------
                             STUPID BOY - T.Mills
-------------------------------------------------------------------------------
Tabbed by:Kamdude

Tuning:standard

This is how to play the keyboard part from the intro and througout the whole song

   Dm     F      C
e|------------------------------------------------|
B|------------------------------------------------|
G|--7-----10-----5--------------------------------|
D|--7-x8--10-x4--5-x4-----------------------------|
A|--5------8-----3--------------------------------|
E|------------------------------------------------|

This is the bass type thing in the background:

e|------------------------------------------------|
B|------------------------------------------------|
G|------------------------------------------------|
D|------------------------------------------------|
A|-5-5-3/5--8-7-5-3/5-5---------------------------|
E|------------------------------------------------|

The electronic thing in the background varies, but is something like this:

e|------------------------------------------------|
B|------------------------------------------------|
G|--7~-7~-7~/10-10/5~-5~--------------------------|
D|------------------------------------------------|
A|------------------------------------------------|
E|------------------------------------------------|

Thats the whole song. Rate it if you like it    

Added On December 16th, 2013

SHARE

Comments

blog comments powered by Disqus

ADVERTISEMENT