Tantara Tabs

Human Mutation

1 versions

TAB

            Title| Human Mutation
Band| Tantara
Tabbed by John aka Slipknotfan666_666

www.myspace.com/tantaraband

Intro|

Play this 6 times

  -----------------|-----------------|-----------------|-----------------|
  -----------------|-----------------|-----------------|-----------------|
  -----------------|-----------------|-----------------|-----------------|
  -----------9-----|-----------------|-----------9-----|-----------------|
  ---7---------8-7-|---7-------------|---7---------8-7-|---7----------8--|
  -0---8-7-0-------|-0---8-7-0-4-7-6-|-0---8-7-0-------|-0---8-7-0-6-7---| 

Bridge|

Play this 1 time
  ------------------------------------------------------------|
  ------------------------------------------------------------|
  ------------------------------------------15--14-----13-----|
  ------------------8----------------------------------- -----|
  -14------15-------6---------14-------15---13--12-----11-----|
  -12------13-----------------12-------13---------------------|

Main Riff|

Play this 4 times

  ---------------------|----------------------|
  ---------------------|----------------------|
  ---------------------|----------------------|
  ---------------------|---------6-7-676------|
  -7-------7-8----6----|-7---7-8---------8----|
  ---0--0-------0----0-|---0------------------|

  ---------------------|----------------------|
  ---------------------|----------------------|
  ---------------------|----------------------|
  ---------------------|----------------------|
  -7-------7-8----6----|-7--------------------|
  ---0--0-------0----0-|---0-0-5-7-8-7-5------|

Verse|

Play this 2 times

  -------------------|----------------------|
  -------------------|----------------------|
  -------------------|----------------------|
  -------2--------2--|-------2--------2--3--|
  -------2--------2--|-------2--------2--3--|
  -0--0--0--0--0--0--|-0--0--0--0--0--0--1--|

  -------------------|-------------------------|
  -------------------|-------------------------|
  -------------------|-------------------------|
  -------2--------2--|-------------------3-----|
  -------2--------2--|-------------------1--3--|
  -0--0--0--0--0--0--|-0--0--0--0--0--0-----1--|

Heavy riff|

Play this 2 times
  -----------------------------|-------------------|
  -----------------------------|-------------------|
  -----------------------------|-------------------|
  -----------------------------|-----------5--4----|
  -4---------------------------|--5--4--5--3--2--5-|
  -2--2-2-2-2-2-2-2-2-2-2-2-2--|--3--2--3--------3-|
  -----------------------------|-------------------|
                                                      Last two|
  -----------------------------|-------------------|--------------|
  -----------------------------|-------------------|--------------|
  -----------------------------|-------------------|--------------|
  -----------------------------|-------------------|--------------|
  -4---------------------------|--4-----5-----8----|--------------|
  -2--2-2-2-2-2-2-2-2-2-2-2-2--|--2-----3-----6----|--3---4---3---|
  -----------------------------|-------------------|--5---2---1---|

Main riff|

Play this 4 times

  ---------------------|----------------------|
  ---------------------|----------------------|
  ---------------------|----------------------|
  ---------------------|---------6-7-676------|
  -7-------7-8----6----|-7---7-8---------8----|
  ---0--0-------0----0-|---0------------------|

  ---------------------|----------------------|
  ---------------------|----------------------|
  ---------------------|----------------------|
  ---------------------|----------------------|
  -7-------7-8----6----|-7--------------------|
  ---0--0-------0----0-|---0-0-5-7-8-7-5------|


Heavy riff|

Play this 2 times
  -----------------------------|-------------------|
  -----------------------------|-------------------|
  -----------------------------|-------------------|
  -----------------------------|-----------5--4----|
  -4---------------------------|--5--4--5--3--2--5-|
  -2--2-2-2-2-2-2-2-2-2-2-2-2--|--3--2--3--------3-|
  -----------------------------|-------------------|
                                                      Last two|
  -----------------------------|-------------------|--------------|
  -----------------------------|-------------------|--------------|
  -----------------------------|-------------------|--------------|
  -----------------------------|-------------------|--------------|
  -4---------------------------|--4-----5-----8----|--------------|
  -2--2-2-2-2-2-2-2-2-2-2-2-2--|--2-----3-----6----|--3---4---3---|
  -----------------------------|-------------------|--5---2---1---|


Verse|

Play this 3 times

  -------------------|----------------------|
  -------------------|----------------------|
  -------------------|----------------------|
  -------2--------2--|-------2--------2--3--|
  -------2--------2--|-------2--------2--3--|
  -0--0--0--0--0--0--|-0--0--0--0--0--0--1--|

  -------------------|-------------------------|
  -------------------|-------------------------|
  -------------------|-------------------------|
  -------2--------2--|-------------------3-----|
  -------2--------2--|-------------------1--3--|
  -0--0--0--0--0--0--|-0--0--0--0--0--0-----1--|


I could not find out rest right now, but i will do later    

Added On December 16th, 2013

SHARE

Comments

blog comments powered by Disqus

ADVERTISEMENT