Tegan And Sara Tabs

Con

5 versions

TAB

            so this is definitely right because if you watch the video on their myspace (chapter 
con) Tegan is playing with a capo on the first fret. have fun and enjoy! and definitely buy 
Con when it comes out on July 24th!

The Con Tab by Tegan and Sara
Capo 1st Fret
Standard Tuning
e-------------------------------|
B-------------------------------|
G--12-----12-----5-----7--------|
D--12-----12-----5-----7--------| x2
A--10 x6---9 x2--3 x5--5 x3-----|
E-------------------------------|

e-------------------------------|
B-------------------------------|
G--12-----12-----5-----7--------|
D--12-----12-----5-----7--------|
A--10 x6---9 x2--3 x5--5 x3-----|
E-------------------------------|
I listened in
Yes, I'm guilty of this you should know this
I broke down and wrote you back
Before you had a chance to
Forget, forgotten, I am moving past this
Giving notice
I have to go
Yes, I know the feeling know you're leaving

e----------------------------|
B----------------------------|
G--9-----------5-----7-------|
D--9-----5-----5-----7-------|
A--7-x2--5-----3 x2--5 x2----|
E--- ----3 x2----------------|
Calm down, I'm calling you to say
I'm capsized staring on the edge of safe
Calm down, I'm calling back to say
I'm home now, I'm coming around

e------------------|
B------------------|
G--5------7--------|
D--5------7--------|
A--3 x16--5 x20----|
E------------------|
Coming around but nobody likes to
But I really like to cry

e------------------|
B------------------|
G---------5--------| x4
D---5-----5--------|
A-- 5 x2--3 x2-----|
E---3--------------|

e-------------|
B-------------|
G----7--------|
D----7--------|
A----5 x16----|
E-------------|
Nobody likes me baby
If I cry
e------------------|
B------------------|
G---------5--------| x4
D---5-----5--------|
A-- 5 x2--3 x2-----|
E---3--------------|

E|---X----X----X-----X----0---X-----|
B|---0----0----0-----0----0---0-----|
G|---0----0----0-----0----0---0-----|
D|---0----0----0-----0----0---0-----|
A|---7----9----10---14----0---3-----|
E|---X----X----X-----X----0---X-----|

e-------------------------------|
B-------------------------------|
G--12-----12-----5-----7--------|
D--12-----12-----5-----7--------|
A--10 x6---9 x2--3 x5--5 x3-----|
E-------------------------------|
Spelled out your name and list the reasons faint of heart
Don't call me back
I imagine you and I was distant, non-existent
I followed suit and laid out on my back
Imagine that
A million hours left to think of you and think of that

e----------------------------|
B----------------------------|
G--9-----------5-----7-------|
D--9-----5-----5-----7-------|
A--7-x2--5-----3 x2--5 x2----|
E--- ----3 x2----------------|
Calm down, I'm calling you to say
I'm capsized staring on the edge of safe
Calm down, I'm calling back to say
I'm home now, I'm coming around

e------------------|
B------------------|
G--5------7--------|
D--5------7--------|
A--3 x16--5 x20----|
E------------------|
Coming around but nobody likes to
But I really like to cry

e------------------|
B------------------|
G---------5--------| x4
D---5-----5--------|
A-- 5 x2--3 x2-----|
E---3--------------|

e-------------|
B-------------|
G----7--------|
D----7--------|
A----5 x16----|
E-------------|
Nobody likes me baby
If I cry

e------------------|
B------------------|
G---------5--------| x4
D---5-----5--------|
A-- 5 x2--3 x2-----|
E---3--------------|

E|---X----X----X-----X----0---X---|
B|---0----0----0-----0----0---0---|
G|---0----0----0-----0----0---0---|
D|---0----0----0-----0----0---0---|
A|---7----9----10---14----0---3---|
E|---X----X----X-----X----0---X---|


E|---X----X----X-----X----0---X---|
B|---0----0----0-----0----0---0---|
G|---0----0----0-----0----0---0---|
D|---0----0----0-----0----0---0---|
A|---7----9----10---14----0---3---|
E|---X----X----X-----X----0---X---|
Encircle me I need to be
Taken down
Encircle me I need to be
Taken down
Encircle me I need to be
Taken down
Encircle me I need to be
Taken down

e-----------|
B-----------|
G--7--------|
D--7--------|
A--5 x16----|
E-----------|
But nobody likes to
But I really like to cry

e------------------|
B------------------|
G---------5--------| x4
D---5-----5--------|
A-- 5 x2--3 x2-----|
E---3--------------|

e-------------|
B-------------|
G----7--------|
D----7--------|
A----5 x16----|
E-------------|
Nobody likes me baby
If I cry
e------------------|
B------------------|
G---------5--------| x4
D---5-----5--------|
A-- 5 x2--3 x2-----|
E---3--------------|

E|---X----X----X-----X---|
B|---0----0----0-----0---|
G|---0----0----0-----0---|
D|---0----0----0-----0---|
A|---7----9----10---14---|
E|---X----X----X-----X---|
Nobody (4x)

E|---X----X----X---X---X--X--|
B|---0----0----0---0---0--0--|
G|---0----0----0---0---0--0--|
D|---0----0----0---0---0--0--|
A|---5----7----9--10---0--3--|
E|---X----X----X---X---X--X--|
Nobody (5x)

E|---X----X----X-----X----0---X---|
B|---0----0----0-----0----0---0---|
G|---0----0----0-----0----0---0---|
D|---0----0----0-----0----0---0---|
A|---7----9----10---14----0---3---|
E|---X----X----X-----X----0---X---|
Encircle me I need to be
Taken down
Encircle me I need to be
Taken down
Encircle me I need to be
Taken down
Encircle me I need to be
Taken down    

Added On December 16th, 2013

SHARE

Comments

blog comments powered by Disqus

VERSIONS

ADVERTISEMENT