Tegan And Sara Tabs

Terrible Storm

3 versions

TAB

            Capo 7

B D Em
"There was a terrible storm and he was wearing all our clothes
e--------2-----0------------|
b--------3-----0------------|
g---4----2-----0------------|
d---4----0-----2------------|
a---2----0-----2------------|
E--------------0------------|

"it was a colder night"
e---------------------|
b---------------------|
g---------------------|
d-----5---------------|
a-----7---------------|
E-----0---------------|

"I thought you would never"
e-----0--------------|
b-----2--------------|
g-----2--------------|
d-----2--------------|
a-----0--------------|
E--------------------|
chorus:

E -B x2 then E-A
"no you haven't missed a thing"
e------------------0----|
b------------------2----|
g---------4--------2----|
d-----5---4-x2--5--2----|
a-----7---2-----7--0----|
E-----0---------0-------|    

Added On December 16th, 2013

SHARE

Comments

blog comments powered by Disqus

VERSIONS

ADVERTISEMENT