The Academy Is Tabs

Weve Got A Big Mess On Our Hands

3 versions

TAB

            Weve Got A Big Mess On Our Hands Tab by The Academy Is


Intro.

e|-------------------------------------|
B|-------------------------------------|
G|-----6-2-6-2-6-2-6-2-6-2-6-2-6-2-6-2-|
D|-----6-2-6-2-6-2-6-2-6-2-6-2-6-2-6-2-|
A|-----4-0-4-0-4-0-4-0-4-0-4-0-4-0-4-0-|
E|-------------------------------------|


Chorus
e|-----------------------------|
B|-----------------------------|
G|------6----4444--------------|
D|------6--2-4444--------------|  X4
A|------4--2-2222--------------|
E|---------0-------------------|
             ....

Verse
e|-------------|
B|-------------|
G|----9--------|  (x65) may be confusing so instead of counting like
D|----9—(x65)--|  that just play till the chorus comes in
A|----7--------|  this is if your playing with a singer. Or the music
E|-------------|
      .

Post Chorus (same as intro)
e|-------------------------------------|
B|-------------------------------------|
G|-----6-2-6-2-6-2-6-2-6-2-6-2-6-2-6-2-|
D|-----6-2-6-2-6-2-6-2-6-2-6-2-6-2-6-2-|
A|-----4-0-4-0-4-0-4-0-4-0-4-0-4-0-4-0-|
E|-------------------------------------|

Chorus
e|-------------------------|
B|-------------------------|
G|------6----4444----------|
D|------6--2-4444----------|  X4
A|------4--2-2222----------|
E|---------0---------------|


Bridge

e|-----------------------------------------|
B|-----------------------------------------|
G|---13------14------16------18------------|
D|----x-(x4)--x-(x4)--x-(x4)--x--(x4)------|
A|---11------12------14------16------------|
E|-----------------------------------------|


e|--------------------------------|
B|--------------------------------|
G|-----4---6--8-9~--9-8-6---------|
D|-----x---x--x-x~--x-x-x---------|  X2
A|-----2--/4--6-7~--7-6-4—--------|
E|--------------------------------|


e|-------------------------|
B|-------------------------|
G|---4--13-11-8-8b---------|
D|---x---x-x--x------------|
A|---2--11-9--6------------|
E|-------------------------|


e|----------------|-----------------------|
B|----------------|-----------------------|
G|---44444444444--|-----6-----4-----------|
D|---44444444444--|-----6--4--4-----(x4)--|
A|---22222222222--|-----4--4--2-----------|
E|----------------|--------2--------------|
     ...........        .  .  .


Chorus
e|-----------------------------|
B|-----------------------------|
G|------6----4444--------------|
D|------6--2-4444--------------|  X8
A|------4--2-2222--------------|
E|---------0-------------------|

Outro.

e|--------------------------------------|
B|--------------------------------------|
G|---13------14------16------18---------|
D|----x-(x4)--x-(x4)--x-(x4)--x--(x4)---|
A|---11------12------14------16---------|
E|--------------------------------------|

e|--------------------------------------|
B|--------------------------------------|
G|---13------14------16------18---------|
D|----x-(x4)--x-(x4)--x-(x4)--x--(x4)---|  x2
A|---11------12------14------16---------|
E|--------------------------------------|

e|--------------------------------------|
B|--------------------------------------|
G|---18------20------21------23---------|
D|----x-(x4)--x-(x4)--x-(x4)--x-(x4)----|  x2
A|---16------18------19------21---------|
E|--------------------------------------|

e|------------------------------------|
B|------------------------------------|
G|-----6-2-6-2-6-2-6-2-6-2-6-2-6-2-6--|
D|-----6-2-6-2-6-2-6-2-6-2-6-2-6-2-6--|
A|-----4-0-4-0-4-0-4-0-4-0-4-0-4-0-4--|
E|------------------------------------|    

Added On December 12th, 2013

SHARE

Comments

blog comments powered by Disqus