The Classic Crime Tabs

Just A Man

1 versions

TAB

            This tab is rhythm guitar only, i haven't figured out the lead part yet.


Intro
E|-------------------------------------|
B|-------------------------------------|
G|-------------------------------------|
D|-10101010-1010-10-10101010-1010-10---| (those are 10's)
A|-7-7-7-7--7-7--7--7-7-7-7--7-7--7----|
D|-7-7-7-7--7-7--7--7-7-7-7--7-7--7----|

E|-------------------------------------------|
B|-------------------------------------------|
G|-------------------------------------------|
D|-1010101010-1010-10-9-9-9-9--9-9--9--9--9--| (still 10's)
A|-1010101010-1010-10-10101010-1010-10-10-10-|
D|-1010101010-1010-10-9-9-9-9--9-9--9--9--9--|

Verse Pt 1
(Repeat Intro twice)

Verse Pt 2 (play twice)
E|-----------------------------------------|
B|-----------------------------------------|
G|-----------------------------------------|
D|-3333-xx-3333-xx-3333-xx-3333-xx---------|
A|-3333-xx-3333-xx-3333-xx-3333-xx---------|
D|-3333-xx-3333-xx-3333-xx-3333-xx---------|

E|-----------------------------------------|
B|-----------------------------------------|
G|-----------------------------------------|
D|-7777-xx-7777-xx-5555-xx-5555-xx---------|
A|-7777-xx-7777-xx-5555-xx-5555-xx---------|
D|-7777-xx-7777-xx-5555-xx-5555-xx---------|

Chorus
E|------------------------------------------------------------|
B|------------------------------------------------------------|
G|------------------------------------------------------------|
D|-3-3-3-3-3-3-5-5-5-5-5-5-10-10-10-10-10-10-7777-xx-5555-xx--| x2
A|-3-3-3-3-3-3-5-5-5-5-5-5-10-10-10-10-10-10-7777-xx-5555-xx--|
D|-3-3-3-3-3-3-5-5-5-5-5-5-10-10-10-10-10-10-7777-xx-5555-xx--|

E|-----------------------------------------|
B|-----------------------------------------|
G|-----------------------------------------|
D|-333333333333-555555555555-777777777777--|
A|-333333333333-555555555555-777777777777--|
D|-333333333333-555555555555-777777777777--|

E|---------------|
B|---------------|
G|---------------|
D|-7~---9~-------|
A|-7~---9~-------|
D|-5~---7~-------|

Post Chorus
E|----------------------------------------------|
B|----------------------------------------------|
G|----------------------------------------------|
D|-10101010-1010101010-1010101010-1010101010----|
A|-7-7-7-7--7-7-7-7-7--7-7-7-7-7--7-7-7-7-7-----|
D|-7-7-7-7--7-7-7-7-7--7-7-7-7-7--7-7-7-7-7-----|

E|-------------------------------------|
B|-------------------------------------|
G|-------------------------------------|
D|-10101010-1010-10-10101010-1010-10---| 
A|-7-7-7-7--7-7--7--7-7-7-7--7-7--7----|
D|-7-7-7-7--7-7--7--7-7-7-7--7-7--7----|

Repeat Verse

Repeat Chorus

Post Chorus
E|----------------------------------------------|
B|----------------------------------------------|
G|----------------------------------------------|
D|-10101010-1010101010-1010101010-1010101010----|
A|-7-7-7-7--7-7-7-7-7--7-7-7-7-7--7-7-7-7-7-----|
D|-7-7-7-7--7-7-7-7-7--7-7-7-7-7--7-7-7-7-7-----|

Bridge
E|-----------------------------------------|
B|-----------------------------------------|
G|-----------------------------------------|
D|-10-10-10-10-10-10-10-10-10-10-10-10-----|
A|-10-10-10-10-10-10-10-10-10-10-10-10-----|
D|-10-10-10-10-10-10-10-10-10-10-10-10-----|

E|-----------------------------------------------------|
B|-----------------------------------------------------|
G|-----------------------------------------------------|
D|-7-7-7-7-7-7-7-7-7-7-7-7-4-4-4-4-4-4-4-4-4-7-7-7-----|
A|-7-7-7-7-7-7-7-7-7-7-7-7-4-4-4-4-4-4-4-4-4-7-7-7-----|
D|-7-7-7-7-7-7-7-7-7-7-7-7-4-4-4-4-4-4-4-4-4-7-7-7-----|

E|-------------------------------|
B|-------------------------------|
G|-------------------------------|
D|-5-5-5-5-5-5-5-5-5-5-5-5-------|
A|-5-5-5-5-5-5-5-5-5-5-5-5-------|
D|-5-5-5-5-5-5-5-5-5-5-5-5-------|

End Chorus
E|--------------------------------------------------------|
B|--------------------------------------------------------|
G|-10-10-10-10-10-10-12-12-12-12-12-12--------------------|
D|-10-10-10-10-10-10-12-12-12-12-12-12-10-10-10-10-10-10--|    

Added On December 16th, 2013

SHARE

Comments

blog comments powered by Disqus

ADVERTISEMENT