The Expendables Tabs

Malibu

1 versions

TAB

            -----------------------------------------------------------------------------
                         Malibu - The Expendables
-----------------------------------------------------------------------------
Tabbed by: j.casquejo
Email: geehanski@yahoo.com


Verse: Rhythm guitar - ska strums
     B    E    A    E
e|--7-7--7-7--5-5--7-7--|
B|--7-7--9-9--5-5--9-9--|
G|--8-8--9-9--6-6--9-9--|
D|----------------------|
A|----------------------|
E|----------------------|

Chorus: Rhythm guitar - ska strums
     A    E      B
e|--5-5--7-7--7-7-7-7--|
B|--5-5--9-9--7-7-7-7--|
G|--6-6--9-9--8-8-8-8--|
D|--7-7--9-9--9-9-9-9--|
A|---------------------|
E|---------------------|

Solo: Lead guitar
e|---------------------------------------|
B|---------------------------------------|
G|----------------------------9----------|
D|--------------6h7p6---6-7/9---9-7-9-7~-|
A|------4-5-5/7-------7------------------|
E|--5-5----------------------------------|

e|------------------------------------------|
B|-----------------12-----------------------|
G|---------9h11~---11h13p11-9h11p9----9-11~-|
D|--7-9/11-------------------------11-------|
A|------------------------------------------|
E|------------------------------------------|

e|--------------------------------------12---------------------|
B|--12----------------------10-12-12b14----pb14p12-10~---10p7~-|
G|--11h13p11-9h11p9----9-11~-----------------------------------|
D|------------------11-----------------------------------------|
A|-------------------------------------------------------------|
E|-------------------------------------------------------------|


************************************

| /   slide up
| h   hammer-on
| p   pull-off
| ~   vibrato
| b   Bend
| pb  Pre-bend
| br  Bend release

************************************    

Added On December 16th, 2013

SHARE

Comments

blog comments powered by Disqus

ADVERTISEMENT