The Living End Tabs

Hey Hey Disbeliever

1 versions

TAB

            Hey Hey Disbeliever

tabbed by Matt Heal,

mattheal @ Gmail.com


intro: (clean)
e|--5-5--3-3--1-1--3-3--5-5--1-1--3-3--5-5--3-3--1-1-111111----|
b|--5-5--3-3--1-1--3-3--5-5--1-1--3-3--5-5--3-3--1-1-111111----|
g|--5-5--4-4--2-2--4-4--5-5--2-2--4-4--5-5--4-4--2-2-222222----|
d|--7-7--5-5--3-3--5-5--7-7--3-3--5-5--7-7--5-5--3-3-333333----|
a|--7-7--5-5--3-3--5-5--7-7--3-3--5-5--7-7--5-5--3-3-333333----|
E|--5-5--3-3--1-1--3-3--5-5--1-1--3-3--5-5--3-3--1-1-111111----|


Main Riff (Octave)
e----------------------------------------------|
B----------------------------------------------|
G----------------------------------------------| x6
D----------------------------------------------|
A--0-0-0-3-0-0-0-0-0-3-0-0-0-0-0-6-0-0-5-0-0-3~|
E----------------------------------------------|

(I wish it didnt.....
e------------------------------|
B------------------------------|
G--------------------------2~--|
D--4444444444--333333333-------| x2
A------------------------------|
E------------------------------|

e----------------------------------------------|
B----------------------------------------------|
G----------------------------------------------| x2
D----------------------------------------------|
A--0-0-0-3-0-0-0-0-0-3-0-0-0-0-0-6-0-0-5-0-0-3~|
E----------------------------------------------|

Chorus (clean)
e|--5-5--3-3--1-1--3-3--5-5--1-1-|
b|--5-5--3-3--1-1--3-3--5-5--1-1-|
g|--5-5--4-4--2-2--4-4--5-5--2-2-|x 2
d|--7-7--5-5--3-3--5-5--7-7--3-3-|
a|--7-7--5-5--3-3--5-5--7-7--3-3-|
E|--5-5--3-3--1-1--3-3--5-5--1-1-|

Verse (octave)
e----------------------------------------------|
B----------------------------------------------|
G----------------------------------------------|
D----------------------------------------------| x6
A--0-0-0-3-0-0-0-0-0-3-0-0-0-0-0-6-0-0-5-0-0-3~|
E----------------------------------------------|

(I wish it didnt.....
e------------------------------|
B------------------------------|
G-------------------------2~---|
D--4444444444--333333333-------| x2
A------------------------------|
E------------------------------|

e----------------------------------------------|
B----------------------------------------------|
G----------------------------------------------|
D----------------------------------------------| x2
A--0-0-0-3-0-0-0-0-0-3-0-0-0-0-0-6-0-0-5-0-0-3~|
E----------------------------------------------|

Chorus
e|--5-5--3-3--1-1--3-3--5-5--1-1-|
b|--5-5--3-3--1-1--3-3--5-5--1-1-|
g|--5-5--4-4--2-2--4-4--5-5--2-2-|x 2
d|--7-7--5-5--3-3--5-5--7-7--3-3-|
a|--7-7--5-5--3-3--5-5--7-7--3-3-|
E|--5-5--3-3--1-1--3-3--5-5--1-1-|


e|----------1-1-1-1------------1-1-1-1--|
b|----------1-1-1-1------------1-1-1-1--|
g|----------2-2-2-2------------2-2-2-2--|
d|-2-2-2-2--3-3-3-3---2-2-2-2--3-3-3-3--|
a|-2-2-2-2--3-3-3-3---2-2-2-2--3-3-3-3--|
E|-0-0-0-0--1-1-1-1---0-0-0-0--1-1-1-1--|

Pre solo (octave)
Dont panic
e-----------------|
B-----------------|
G-----------------|
D-----------------| x3
A-----------------|
E-0-5-5-5-5-5-5-5-|

Solo (octave)
e|------------------------------------------------------------------------|
b|------------------------------------------------------------------------|
g|------------------------------------------------------------------------|
d|------------------------------------------10-1212-10--------------------|
a|------------------------------------10-12-----------12-10---------------|
E|--8/1010101010-8/1010101010-8/10-13-----------------------13-10---------|

e|------------------------------------------------------------------------|
b|------------------------------------------------------------------------|
g|--------------------------------------------------------12p10-----------|
d|------------------------------------------10-1212-10----------12--------|
a|------------------------------------10-12------------12-----------------|
E|--8/1010101010-8/1010101010-8/10-13-------------------------------------|

e|------------------------------------------------------------------------|
b|------------------------------------------------------------------------|
g|------------------------------------------------------------------------|
d|-------------------------------------------12-1414-12-------------------|
a|--------------------------------------12-14----------14-12--------------|
E|--10/1212121212-10/1212121212-10/12-15---------------------15-12--------|

e|------------------------------------------------------------------------|
b|------------------------------------------------------------------------|
g|---------------------------------------------------------14-12----------|
d|-------------------------------------------12-1414-12----------14-------|
a|--------------------------------------12-14-----------15----------------|
E|--10/1212121212-10/1212121212-10/12-15----------------------------------|

e--------------------------------------|
B--------------------------------------|
G--------------------------------------|
D--------------------------------------|
A-/888888-999999-1010101010-1111111111-|
E--------------------------------------|

e----------------|
B----------------|
G----------------|
D----------------|
A-121212-15-1212-|x3
E----------------|

verse  (octave)
e|-------------------------------------------------------|
b|-------------------------------------------------------|
g|-------------------------------------------------------|
d|----------------------------------13------12-----------| x6
a|-12-12-12-15-12-12-12-15-12-12-12---12-12---12-12-13~--|
E|-------------------------------------------------------|

(I wish it didnt.....
e------------------------------|
B------------------------------|
G------------------------------|
D--4444444444--333333333-------| x2
A-------------------------3~---|
E------------------------------|

Chorus (Clean)
e|--5-5--3-3--1-1--3-3--5-5--1-1-|
b|--5-5--3-3--1-1--3-3--5-5--1-1-|
g|--5-5--4-4--2-2--4-4--5-5--2-2-|x 2
d|--7-7--5-5--3-3--5-5--7-7--3-3-|
a|--7-7--5-5--3-3--5-5--7-7--3-3-|
E|--5-5--3-3--1-1--3-3--5-5--1-1-|

e|----------1-1-1-1------------1-1-1-1--|
b|----------1-1-1-1------------1-1-1-1--|
g|----------2-2-2-2------------2-2-2-2--|
d|-2-2-2-2--3-3-3-3---2-2-2-2--3-3-3-3--|
a|-2-2-2-2--3-3-3-3---2-2-2-2--3-3-3-3--|
E|-0-0-0-0--1-1-1-1---0-0-0-0--1-1-1-1--|

Outro (octave)
e----------------------------------------------|
B----------------------------------------------|
G----------------------------------------------|
D----------------------------------------------| x2
A--0-0-0-3-0-0-0-0-0-3-0-0-0-0-0-6-0-0-5-0-0-3~|
E----------------------------------------------|

e------------------------------------------------------|
B------------------------------------------------2-----|
G------------------------------------------------2-----|
D------------------------------------------------2-----| 
A--0-0-0-3-0-0-0-0-0-3-0-0-0-0-0-6-0-0-5-0-0-3~--0-----|
E------------------------------------------------------|    

Added On December 16th, 2013

SHARE

Comments

blog comments powered by Disqus

ADVERTISEMENT