The Menzingers Tabs

Whos Your Partner

1 versions

TAB

            -----------------------------------------------------------------------------
                             WHO'S YOUR PARTNER? - The Menzingers
-----------------------------------------------------------------------------
Tabbed by:
Email:

Tuning:

Great song here by a great band. I saw them play this live, and I know they used a 
capo on some songs, but I can't remember if they did or not on this. Anyways, you 
could probably put one on the third fret make it a little easier. Tab is at the bottom.

Chords:
A#    6-8-8-7-6-6  (w/ capo, G)
D#    x-6-8-8-6-6  (w/ capo, C)
Cm    x-3-5-5-4-3  (w/ capo, Am)
Gm    3-5-5-3-3-3  (w/ capo, Em)

INTRO:  A#

VERSE: (w/ verse lead)
A#   
I was born on a light-skinned road,
I was born with an engineers gold,
Gm                   A#
I did better than most.

A#
Now I live on a dark-skinned road,
The collectors call they try to take my gold,
Gm                A#
Im happier than most.


BRIDGE:(w/lead)
F
The streets are never clean
   D#
My friends they help preserve my innocence.

A#    Gm


VERSE:
A#
We shared our cigarettes,
At the window we placed our bets,
Gm                                               A#
They wouldnt call our names, Tickets hide our shame.

A#
So we laughed through glossy eyes,
Surely the gods would recognize,
Gm                                                       A#
Our good intentions, we showed them, The sweat covered our skin.


BRIDGE: (w/lead)
F
We aged a decade in an hour,
D#
We gave away our innocence.
A#


INTERLUDE:
(n.C)
So let these simple songs get caught in our heads,
Gm
Brace the frames of our worthless beds.
A#
All my life never gave a fuck,
Gm             D#        
Someone please wake me up.

GUITAR SOLO:
A#     Gm

OUTRO:
A#
So let these simple songs get caught in our heads,
Gm
Brace the frames of our worthless beds.
A#
All my life never gave a fuck,
Gm             Cm          A#
Someone please wake me up.     



VERSE LEAD:
  A#                                  Gm                 A#
e|-----------------|-----------------|------------------|------------------|
B|-----------------|-----------------|--6-6-6-6-6-6-6---|------------------|
G|--7-7-7-7-7-7-7-7|--7-7-7-7-7-7-7-7|-8-8-8-8-8-8-8-8-7|--7-7-7-7-7-7-7-7-|
D|-8-8-8-8-8-8-8-8-|-8-8-8-8-8-8-8-8-|------------------|-8-8-8-8-8-8-8-8--|
A|-----------------|-----------------|------------------|------------------|
E|-----------------|-----------------|------------------|------------------|
   pm  . . . . . .   . . . . . . . .   . . . . . . . . .  . . . . . . . .   

 
BRIDGE LEAD:
  F                             A#
e|----------------------------|--------------------------|
B|----------------------------|--------------------------|
G|-10--1010--10-10---1012--12-|-8---8-8---8--8---8-8---8-|
D|----------------------------|--------------------------|
A|-8---8-8---8--8----8-10--10-|-6---6-6---6--6---6-6---6-|
E|----------------------------|--------------------------|
  A#
e|----------------------------|----------------------------|
B|----------------------------|----------------------------|
G|-10--8-8---7-7--------------|-10--8-8---7-7--------------|
D|-----------------10-10-8--8-|----------------10-10-8--8--|
A|----------------------------|----------------------------|
E|----------------------------|----------------------------|

  Gm
e|-----------------------------|--------------------------------|
B|-----------------------------|--------------------------------|
G|-----7----7----7----7--------|--10-10-8-8--7-7----------------|
D|-8h10-8h10-8h10-8h10-10108-8-|------------------10-12-10-12---|
A|-----------------------------|--------------------------------|
E|-----------------------------|--------------------------------|




 GUITAR SOLO (same as bridge lead)
  A#
e|----------------------------|----------------------------|
B|----------------------------|----------------------------|
G|-10--8-8---7-7--------------|-10--8-8---7-7--------------|
D|-----------------10-10-8--8-|----------------10-10-8--8--|
A|----------------------------|----------------------------|
E|----------------------------|----------------------------|

  Gm
e|-----------------------------|--------------------------------|
B|-----------------------------|--------------------------------|
G|-----7----7----7----7--------|--10-10-8-8--7-7----------------|
D|-8h10-8h10-8h10-8h10-10108-8-|------------------10-12-10-12---|
A|-----------------------------|--------------------------------|
E|-----------------------------|--------------------------------|    

Added On December 16th, 2013

SHARE

Comments

blog comments powered by Disqus

ADVERTISEMENT