The Raconteurs Tabs

Crazy

1 versions

TAB

            -------------------------------------------------------------------------------
			     Crazy - Raconteurs
-------------------------------------------------------------------------------
By no means is it perfect, but live shows, especially with Jack White and his crazy 
are hard to transcribe and figure out

Tabbed by: eadgtotheend
Email: nickr62293@yahoo.com

Tuning: Standard

Verse (play a few times then do the rhythm on first fret E) Listen for the rhythm repeat 
note as needed except for the d which is played as such)
e|---------------------------------------------------------------------------|
B|---------------------------------------------------------------------------|
G|---------------------------------------------------------------------------|
D|---------------------------------------------------------------------------|
A|2-------6-------55---------------------------------------------------------|
E|------------------3--------------------------------------------------------|
Chorus
e|---------------------------------------------------------------------------|
B|---------------------------------------------------------------------------|
G|----------777777777----------55555555--------------------------------------|
D|555555555-777777777-55555555-55555555-33333333-----------------------------|
A|555555555-555555555-55555555-33333333-33333333-----------------------------|
E|333333333-----------33333333----------11111111-----------------------------|
Instrumental Break, these are the right notes, figure out the rhythm yourself
e|-------------------------------------------------------------------------|
B|-------------------------------------------------------------------------|
G|--------7\-5-------------------------------------------------------------|
D|4-2--5--5\-5-8\--2-------------------------------------------------------|
A|2-2--5--5\-3-8\--2-------------------------------------------------------|
E|2-0--3-------6\--0-------------------------------------------------------|

| /  slide up
| \  slide down
| h  hammer-on
| p  pull-off
| ~  vibrato
| +  harmonic
| x  Mute note
===============================================================================    

Added On December 16th, 2013

SHARE

Comments

blog comments powered by Disqus

ADVERTISEMENT