The Raconteurs Tabs

Intimate Secretary

3 versions

TAB

            Intimate Secretary Tab by The Raconteurs


----------------------------------------------------------------------------
		     Intimate Secretary - The Raconteurs
----------------------------------------------------------------------------
Tabbed by:Afro Wes
Email:who wants to know?

Great song and has been tabbed by me first-accept no substitutes!
Tuning:Standard

Intro

e|----7-6-5-3---------------------------------------------------------------------|
B|----8-6-5-3----------repeat these chords a lot----------------------------------|
G|----7-7-5-4---------------------------------------------------------------------|
D|----x x x x---------------------------------------------------------------------|
A|----x x x x---------------------------------------------------------------------|
E|----x x x x --------------------------------------------------------------------|

VERSE

e|---------------------------------------------------------------------------------|
B|---------------------------------------------------------------------------------|
G|---------------------------------------------------------------------------------|
D|----8--\--5----------------------------------------------------------------------|
A|----8--\--5-----repeat theses chords a lot too-----------------------------------|
E|----6--\--3-------------------------------------------------------------------A--|     G

Chorus

e|----2--------------------------------------------------------------------------|
B|----3-1------------------------------------------------------------------------|
G|----2--------------------------------------------------------------------------|
D|------2------------------------------------------------------------------------|
A|----x-3------------------------------------------------------------------------|
E|----x-x------------------------------------------------------------------------|   D C


| /  slide up
| \  slide down
| h  hammer-on
| p  pull-off
| ~  vibrato
| +  harmonic
| x  Mute note
============================================================================    

Added On December 12th, 2013

SHARE

Comments

blog comments powered by Disqus

VERSIONS

ADVERTISEMENT