The Raconteurs Tabs

It Aint Easy

2 versions

TAB

            It Aint Easy Tab by The Raconteurs


It Ain't Easy (cover of David Bowie)

 Asus4    Asus4    A      A       repeat
|--0-------0--------0------0-----| 
|--5-------5--------5------5-----|
|--7-------7--------6------6-----|use the 4th finger to
|--7-------7--------7------7-----|lift on and off. For the
|0-------0--------0------0-------|"Strange things" put it on the C
|--------------------------------|------8br--

When you climb to the top of the mountain, look out over the sea
Think about the places perhaps, where a young man could be
Then you jump back down to the rooftops, look out over the town      C  
Think about all of the strange things circulating round         It ain't

(Note only the bass plays the C for 1 beat on the count of 4)
 
|A         C   |A        C   |A         Eb    |  (Eb=xx5343) 
 easy  It ain't easy  It ain't easy to get to 

|D                 A          |A  
heaven when you're going down
 Asus4               A                   Eb        D
|-------------------|-------------------|-------------------|
|8b10~-8~---------8-|8b10~-8~---------8-|-------------------|
|---------9~--7-9---|---------9~--7-9---|9~-----9-7~--------|
|-------------------|-------------------|-------------------|
|-------------------|-------------------|-------------------|
|-------------------|-------------------|-------------------|
 A
|-------------------|-------------------|
|-------------------|-------------------|
|-------------6/7\6-|-------------------|
|------2-4/7.-------|7~-----------------|
|0-3/4--------------|-------------------|
|-------------------|-------------------|

+++++++++++++++++++++++++++    

Added On December 12th, 2013

SHARE

Comments

blog comments powered by Disqus

VERSIONS

ADVERTISEMENT