The Skints Tabs

Rise Up

1 versions

TAB

            Song: Rise Up
Band: The Skints

Another easy song to play.

    F#m     Bm
|---2---2---2---2---|
|---2---2---3---3---|
|---2---2---4---4---|
|---4---4---4---4---|
|---4---4---2---2---|
|---2---2-----------|

Just those two chords throughout.
The bassline is something like this:

|----------------------------|
|----------------------------|
|-----4-0--------0-2----0-2--|
|---2-----2---22------2------|    

Added On December 16th, 2013

SHARE

Comments

blog comments powered by Disqus

ADVERTISEMENT