The Sword Tabs

The Sundering

1 versions

TAB

            The Sundering

Tuning: C-F-Bb-Eb-G-c

Intro (Acoustic)


Guitar 1
c  ---------------------------------------------------|
G  ---------------------------------------------------|
Eb ----9-----9-----9-----9--------12----------12------|
Bb --9---9-9---9-9---9-9---9--12------12--12------12--|
F  -7-7-7-7-7-7-7-7-7-7-7-7-10--10--10--10--10--10----|
C  ---------------------------------------------------|

c  ----------------|
G  ----------------|
Eb ----7-----7-----|
Bb --7---7-7---7---|
F  -5-5-5-5-5-5----|
C  ----------------|


Guitar 2
c  ----------------------|
G  ----------------------|
Eb -7h9~----12~--14-14b--|
Bb ----------------------|
F  ----------------------|
C  ----------------------|

c  ---------------------------------------|
G  ---------------------------------------|
Eb -9~----7~--7~--7h9~------7~--7~--7h9---|
Bb ---------------------9~----------------|
F  ------(5)-(5)-----------(5)-(5)--------|
C  --------------------(0)----------------|

* Notes in parentheses are harmonized notes.
They might be played by a third guitar but you can play it on one.


Intro Riff (Distorted)

C -0-000-0-000-0-000- etc.


Bb ----------------------------------|
F  -11-13-11-10-11-10-8-10-8-7-8-7---|
C  ----------------------------------|

Riff A
c  -------------------------------------------------|
G  -------------------------------------------------|
Eb -------------------------------------------------|
Bb -10\-9---9---9--------7\-9---9-------------------|
F  --8\-7---7---7----8---5\-7---7---10h11p10-8h10p8-|
C  ------000-000-000-6-00----000-000--------0-------|

Riff B
c  ------------------------------|
G  ------------------------------|
Eb ------------------------------|
Bb -10\-9~---------10\-9~--------|
F  --8\-7~---5-7-8--8\-7~---8-8--|
C  -------------------------6-6--|

Riff C
c  ------------------------------------------|
G  ------------------------------------------|
Eb ------------------------------------------|
Bb -10\-9---9---9---7-9-10-9---9---9---9-----|
F  --8\-7---7---7---5-7--8-7---7---7---7-----|
C  ------000-000-000--------000-000-000-000--|

c  ------------------------------------|
G  ------------------------------------|
Eb ------------------------------------|
Bb -12---12---12---12---7---7---7---7--|
F  -10---10---10---10---5---5---5---5--|
C  ---000--000--000--000-000-000-000---|

Solo (back up guitar is riff c)

c  ------------------|
G  ------------------|
Eb -12~-----11~------|
Bb ------------------|
F  ------------------|
C  ------------------|

c  ---------------------------------------------|
G  ---------------------------------------------|
Eb ---12--12-14-12-14b15h12--12-14-12-14b15h12--|
Bb -14--14-----------------14-------------------|
F  ---------------------------------------------|
C  ---------------------------------------------|

c  --------------------------------------------------|
G  --------------12--12-15-12-15b16-15b16~-15b16h12--|
Eb ---12-14-12-14--14--------------------------------|
Bb -14-----------------------------------------------|
F  --------------------------------------------------|
C  --------------------------------------------------|

c  ----------------------------------|
G  ---12-----------------------------|
Eb -14--14-12-14b15-14b15-12h14p12~--|
Bb ----------------------------------|
F  ----------------------------------|
C  ----------------------------------|

Sorry, I don't know the rest of solo. Workin on it.

Riff D
c  ----------------------------|
G  ----------------------------|
Eb ----------------------------|
Bb -9~---------9~---12~---7~---|
F  -7----5-7-8-7----10~---5~---|
C  ----------------------------|

Riff A
c  -------------------------------------------------|
G  -------------------------------------------------|
Eb -------------------------------------------------|
Bb -10\-9---9---9--------7\-9---9-------------------|
F  --8\-7---7---7----8---5\-7---7---10h11p10-8h10p8-|
C  ------000-000-000-6-00----000-000--------0-------|


Riff B
c  ------------------------------|
G  ------------------------------|
Eb ------------------------------|
Bb -10\-9~---------10\-9~--------|
F  --8\-7~---5-7-8--8\-7~---8-8--|
C  -------------------------6-6--|    

Added On December 16th, 2013

SHARE

Comments

blog comments powered by Disqus

ADVERTISEMENT