This Will Destroy You Tabs

Grandfather Clock

1 versions

TAB

            This Will Destroy You
Grandfather Clock

Tuning : Half step down from standard.

I hope this is correct. I'm not 100% on the final riff,but it sounds very close to me.

|-----------------------------------|
|-----------------------------------|
|-------0------------------------0--|
|-----4------4----0------------4----|
|---2-----2----2-----2-------5------|
|-0---------------------0--3--------|


|----------------------|
|-3---2----------------|
|--------2---2---4---2-|
|----------------------|
|----------------------|
|----------------------|

|--------0------------0--------------|
|-3p2-------3*-3p2------2h3----------|
|-----2------------2---------2--4--2-| * I believe this note is played only 
|------------------------------------|   the last few times, but feel free to
|------------------------------------|   play it or not,depending on how it
|------------------------------------|   sounds to you    

Added On December 16th, 2013

SHARE

Comments

blog comments powered by Disqus

ADVERTISEMENT